Song name
# A B C D E F G H I J K L M N O P Q R S T U V W X Y Z

John Frusciante - Remain tab

Main riff
E||-------0-0----0-0-|------0-0---0-0-|
B||-------0-0----0-0-|------0-0---0-0-| This is only approximate,
G||-------0-0----0-0-|------0-0---0-0-| you may need to hit the 
D||-------5-5--------|------5-5-------| strings more than i've
A||---7-7-----5------|--7-7-----5-----| suggested
E||-------------7----|----------------|

Verse riff
E||--0-0-0-0-|-0-0-0---|
B||--0-8-0-0-|-0-8-0---|
G||--9---7---|-9---7---|
D||--------9-|---------|
A||----------|---------|
E||----------|---------|

Chords 1
A
And when you reach that point
B
You're a wall

Chords 2
E
With these riches, we walk and walk.
   D               C                   E
We give to this way cuz this is how we feel.

Outro Riff
   E               D          C        
E||-------------|-------------------------|
B||-------------|------8----------8-------|
G||-12---10---9-|--9-7---7----9-7---7-----|
D||-------------|----------9----------9-9-|
A||-------------|-------------------------|
E||-------------|-------------------------|

Background riff
E||-----------------------------|
B||-----------------------------|
G||--9--7--9--7-9--9--7--9-9--7-|
D||-----------------------------|
A||-----------------------------|
E||-----------------------------|

Play the chords like this:
    A   B   E   D   C
E||-0---0---0---0---0--|
B||-0---0---0---0---0--|
G||-0---0---9---7---5--|
D||-7---5---9---7---5--|
A||-7---5---7---5---3--|
E||-5---3--------------|

Song Progression:
Main riff x2
Verse riff x2
Main riff x2
Verse riff x2
Main riff x2
Chords 1 x1
Main riff x1
Chords 1 x1
Main riff x2
Verse riff x2
Main riff x2
Verse riff x2
Main riff x2
Chords 1 x1
Main riff x1
Chords 1 x1
Chords 2 (Without vocals) x1
Chords 2 (With vocals) x2
Chords 2 with Outro Riff
Chords 2 with Outro Riff and Background Riff
Tap to rate this tab
# A B C D E F G H I J K L M N O P Q R S T U V W X Y Z