Guitaretab - guitar tabs
Song name
# A B C D E F G H I J K L M N O P Q R S T U V W X Y Z

John Frusciante - Central tab

-------------------------------------------------------------------------------
			     Central (Solo) Ė John Frusciante
-------------------------------------------------------------------------------
Tabbed by: Andy
Email:

Tuning: standard

This part starts at 4:39 and goes over the chorus.
It gets drowned out near the end by the vocals and then sorta comes back around 5:22 but 
havenít tabbed that part yet.
Most of the tpís arenít exactly tremolo picking but Iím too lazy to count the number of 
he picks them.
The timing is all screwy so LISTEN TO THE SONG.
[ Tab from: http://www.guitaretab.com/j/john-frusciante/184436.html ]
e|---------------------------------------------------------------------------|
B|------------------------------15b17-15b17r15p13------------------13-15-----|
G|-------14-12-14h16p14-12h14v----------------------14v-14tp--/14------------|
D|---------------------------------------------------------------------------|
A|---------------------------------------------------------------------------|
E|---------------------------------------------------------------------------|

e|-----------------15h17-----------------------------------------------------|
B|-15b17-13-13h15---------/16-14h16p14--/14tp--/14tp-14p12\--/12h14tp--------|
G|---------------------------------------------------------------------------|
D|---------------------------------------------------------------------------|
A|---------------------------------------------------------------------------|
E|---------------------------------------------------------------------------|

e|---------15--15--15--15--15--15--15ó15h17ó19b21r19-17----------------------|
B|--/17tp----17--17--17--17--17--17--17--------------------------------------|
G|---------------------------------------------------------------------------|
D|---------------------------------------------------------------------------|
A|---------------------------------------------------------------------------|
E|---------------------------------------------------------------------------|
Related for Central tab