Song name
# A B C D E F G H I J K L M N O P Q R S T U V W X Y Z

John Frusciante - Figure 6 tab

-------------------------------------------------------------------------------
			     Figure 6 - John Frusciante
-------------------------------------------------------------------------------
Tabbed by: J. King
Email:jking@adrian.edu

Tuning:standard

chords are given, but not rythm...listen to the youtube video to figure that out

e|-----X-------------------------------------------------------------------|
B|---/-7-------------------------------------------------------------------|
G|---/-7-Slide into this chord 4 times over 4 measures then---12h14--12~---|
D|---/-6-------------------------------------------------------------------|
A|---/-7----------------------------------------------------attack whole---|
E|-----X---------------------------------------------------kneck of guitar-|

e|-----X-------------------------------------------------------------------|
B|---/-7-------------------------------------------------------------------|
G|---/-7-Slide into chord 1 time over 1 measure then-----------------------|
D|---/-6-------------------------------------------------------------------|
A|---/-7-------------------------------------------------------------------|
E|-----X------------------------------------------------3h5-5(b)7(r)5--3~--|

e|-----X-------------------------------------------------------------------|
B|---/-7-------------------------------------------------------------------|
G|---/-7-Slide into chord 1 time over 1 measure then------9(b)12(hold)-----|
D|---/-6-------------------------------------------------------------------|
A|---/-7-------------------------------------------------------------------|
E|-----X-------------------------------------------------------------------|

e|-----X-------------------------------------------------------------------|
B|---/-7-------------------------------------------------------------------|
G|---/-7-Slide into chord 1 time over 1 measure then---7h9--9(b)12(r)9--7~-|
D|---/-6-------------------------------------------------------------------|
A|---/-7-------------------------------------------------------------------|
E|-----X-------------------------------------------------------------------|

e|-----X-------------------------------------------------------------------|
B|---/-7-\-----------------------------------------------------------------|
G|---/-7-\-Slide in and out of chord 1 time over 1 measure then------------|
D|---/-6-\-----------------------------------------------------------------|
A|---/-7-\-----------------------------------------------------------------|
E|-----X------------------------------------------------------3/5-3/(12)\--|

e|-----X-------------------------------------------------------------------|
B|---/-7-------------------------------------------------------------------|
G|---/-7-Slide into chord 2 times over 2 measures then-------/14--12~------|
D|---/-6-------------------------------------------------------------------|
A|---/-7-------------------------------------------------------------------|
E|-----X-------------------------------------------------------------------|

e|-----X-------------------------------------------------------------------|
B|---/-7-------------------------------------------------14(b)16(r)14------|
G|---/-7-Slide into chord 2 times over 2 measures then-----------------12~-|
D|---/-6-------------------------------------------------------------------|
A|---/-7-------------------------------------------------------------------|
E|-----X-------------------------------------------------------------------|

Tap to rate this tab
 
# A B C D E F G H I J K L M N O P Q R S T U V W X Y Z