Song name
# A B C D E F G H I J K L M N O P Q R S T U V W X Y Z

John Frusciante - Past Recedes tab

-------------------------------------------------------------------------------
			     The Past Recedes - John Frusciante
-------------------------------------------------------------------------------
Tabbed by: James King
Email: jking@adrian.edu

Tuning: Standard

Intro: G, D, Am, Em x3 then G, D, Am

Verse: G, D, Am, Em x3 then G, D, Am

             G, D, Am, Em x3 then G, D, Am, B7 (low to high - X212X3
 - take G (3) off and on randomly)

Chorus: C, D, Em, D x2 then C, G, Am, D7 (XX0212)

Verse: G, D, Am, Em x3 then G, D, Am

             G, D, Am, Em x3 then G, D, Am, B7

Chorus c, D, Em, D x2 then C, G, Am, D7 into solo

e|-8--8(h)10(p)8-----------------------------7-------------------------------------|
B|---------------10--8(h)10(p)8--7--7--7--8------10-8-7--8---7--5--3---------------|
G|-------------------------------9-------------------------------------------------|
D|---------------------------------------------------------------------------------|
A|---------------------------------------------------------------------------------|
E|---------------------------------------------------------------------------------|

e|------------------------------------------------------------------------------------|
B|--3(h)5(p)3(p)0---------------------------------------------------------------------|
G|-----------------4--2--4--2---2(h)4(p)2(p)0--------0--------------------0-----------|
D|----------------------------------------------4------5--4--2--0--2--4---------------|
A|------------------------------------------------------------------------------------|
E|------------------------------------------------------------------------------------|

e|------------------------------3---7--5(h)7(p)5(p)0-------10--10--10(b)(12)-----------|
B|---------------3(h)5(p)3(p)0------------------------7--8-----------------------------|
G|--4--0--4--0-------------------------------------------------------------------------|
D|-------------------------------------------------------------------------------------|
A|-------------------------------------------------------------------------------------|
E|-------------------------------------------------------------------------------------|

e|(hit bent e string twice)-(12)-(12)-12(b)(14)-(hit bent e string twice)-(14)-(14)----|
B|-------------------------------------------------------------------------------------|
G|-------------------------------------------------------------------------------------|
D|-------------------------------------------------------------------------------------|
A|-------------------------------------------------------------------------------------|
E|-------------------------------------------------------------------------------------|

e|--10------------------------------------------------------------------------------|
B|-------12(b)(14)(r)(12)--10--8----------------------------------------------------|
G|----------------------------------------------------------------------------------|
D|----------------------------------------------------------------------------------|
A|----------------------------------------------------------------------------------|
E|----------------------------------------------------------------------------------|

Chorus: C, D, Em, D x2 then C, G, Am, C, G, Am, D7

Ending: G, D, Am, Em x3 then G, D, Am, B7 end on G


| /  slide up
| \  slide down
| h  hammer-on
| p  pull-off
| ~  vibrato
| +  harmonic
| x  Mute note
===============================================================================
Tap to rate this tab
# A B C D E F G H I J K L M N O P Q R S T U V W X Y Z