Song name
# A B C D E F G H I J K L M N O P Q R S T U V W X Y Z

John Frusciante - Untitled 6 tab

John Frusciante - Untitled #6


e|-------------------|----------------|--------------11----|----------------|
B|----9--------------|---7----------9-|----9---------------|---7------------|
G|---8---------------|--6---------9---|---8--------8-------|--6-------------|
D|--9-------------9--|-8--------9-----|--9--------9-9------|-8---------9-9--|
A|11-----------9-----|9-----7--7-7-7--|11------------------|9-----7---7-7---|
E|-------11--11-11---|----------------|-------11-----------|----------------|

e|-----------------|------------------------|-------------11|---------------|
B|----9------------|---7-------------------9|----9----------|---7-----------|
G|---8-------------|--6------------------9--|---8-------8---|--6------------|
D|--9-------------9|-8-----------------9----|--9---------9--|-8-------9-9--9|
A|11-----------9---|9-----7-11-111111-7-7-7-|11-------------|9----7--7-7-11-|
E|-------11--11-11-|------------------------|-------11------|---------------|

e|-------------------|----------------|--------------11----|----------------|
B|----9--------------|---7------------|----9---------------|---7------------|
G|---8---------------|--6-------------|---8--------8-------|--6----------9--|
D|--9-------------9--|-8--------9-9---|--9--------9-9------|-8---------9----|
A|11-----------9-----|9-----7--7-7----|11------------------|9-----7---7-7---|
E|-------11--11-11---|----------------|-------11-----------|----------------|

e|-----------------|------------------|--------------11--|------------------|
B|----9------------|---7-------------9|----9-------------|---7----9-9-9-9---|
G|---8-------------|--6------------9--|---8--------8-----|--6-----9-9-9-9---|
D|--9-------------9|-8-----------9----|--9----------9----|-8------9-9-9-9---|
A|11-----------9---|9-----7-----7-7-7-|11----------------|9-----7-7-7-7-7---|
E|-------11--11-11-|------------------|-------11---------|------------------|

e|--------------------------------------------------------------------------|
B|5--------11--------9---------7----------9--------11-------9-------7-------|
G|6--------11--------9---------8----------9--------11-------9-------8-------|
D|6--------11--------9---------9----------11-------11-------9-------9-------|
A|4--------9---------7---------9----------11-------9--------7-------9-------|
E|-----------------------------7----------9-------------------------7-------|

e|-------------------|----------------|--------------11----|----------------|
B|----9--------------|---7----------9-|----9---------------|---7------------|
G|---8---------------|--6---------9---|---8--------8-------|--6-------8b----|
D|--9-------------9--|-8--------9-----|--9--------9-9------|-8--------------|
A|11-----------9-----|9-----7--7-7-7--|11------------------|9-----7---------|
E|-------11--11-11---|----------------|-------11-----------|----------------|

e|-----------------|---------------|-------------11-|-----------------------|
B|----9------------|---7----------9|----9-----------|---7-------------------|
G|---8-------------|--6---------9--|---8-------8----|--6--------------------|
D|--9-------------9|-8--------9----|--9---------9---|-8---------------------|
A|11-----------9---|9-----7--7-7-7-|11--------------|9---7-7h9-7-7h9-7/11-11|
E|-------11--11-11-|---------------|-------11-------|-----------------------|
Tap to rate this tab
# A B C D E F G H I J K L M N O P Q R S T U V W X Y Z