Song name
# A B C D E F G H I J K L M N O P Q R S T U V W X Y Z

John Frusciante - Enough Of Me tab

Enough of Me - John Frusciante
Vocals tabbed by QC
   Please listen to the song vocals or sing.
Probably it is NOT 100% correct, anything mail me:
dont.trust.me.dear@gmail.com

This precise time and right here
e|----------------|
B|----------------|
G|-----4-2--------|
D|--0-4-----------|
A|---------4-5----|
E|----------------|
Are not going anywhere

e|--------3--2------|
B|------3------3--3-|
G|-2--4-------------|
D|------------------|
A|------------------|
E|------------------|
I`ve had enough of new todays

e|----------------|
B|----------------|
G|-----4-2--------|
D|--0-4-----------|
A|---------4-5----|
E|----------------|
For once I`d like to go another way
e|--------3--2----------|
B|------3------3-3/5\3--|
G|-2--4-----------------|
D|----------------------|
A|----------------------|
E|----------------------|
I speak my last words and then
e|---------------------|
B|---------------------|
G|---------------------|
D|---------------------|
A|--2-0----4--4--2-----|
E|------2--------------|


 Remember it may never end
(this one sounds great in bass)
e|---------------------|
B|---------------------|
G|---------------------|
D|----4-2--0-2-4-------|
A|--2-------------2----|
E|---------------------|

or try this (sounds better for guitar)

e|---14-12-10-12-14----|
B|-12---------------12-|

All that I`ve won I have lost
e|---------------------|
B|---------------------|
G|---------------------|
D|---------------------|
A|--2-0----4--4--2-----|
E|------2--------------|
Each passing moment cuts me off

e|------------------------|
B|------------------------|
G|------------------------|
D|------------------------|
A|--2-2-2-0-0-0-----------|
E|---------------2-2-3-3--|

(For this part I think u should play the same chords[i think it sounds better that way] 
the previous tabs of this song in this website/they are:)

Bm              Em             Bm                  A    E
Well, I don`t like to waste a chance but they`re overflowing
Bm              Em         Bm      A    E
What I don`t do will get done by somebody
Bm           Em             Bm      A    E
When I was five I saw some plants ungrowing
Bm              Em         Bm      A    E
Whether seen forwards or back they`d keep going

If the seasons which change were all still

e|------7-7--10--5---------------|
B|--7-7--------------3-3-3-5---3-|
G|---------------------------4---|
D|-------------------------------|
A|-------------------------------|
E|-------------------------------|

It`s so easy to see life would fail
e|------7-7--10--5--------------|
B|--7-7--------------3--5-5--3--|
G|------------------------------|
D|------------------------------|
A|------------------------------|
E|------------------------------|
Whatever slips out of our hands

e|---7-7-7--5--------------|
B|-------------7-----5---3-|
G|---------------7-----4---|
D|-------------------------|
A|-------------------------|
E|-------------------------|
Will find its way back to us once again

e|---------------------|
B|---------------------|
G|---------------------|
D|--5-5-5-4------------|
A|----------2-2-5------|
E|---------------------|


If the seasons which change were all still

e|------7-7--10--5---------------|
B|--7-7--------------3-3-3-5---3-|
G|---------------------------4---|
D|-------------------------------|
A|-------------------------------|
E|-------------------------------|

It`s so easy to see life would fail
e|------7-7--10--5--------------|
B|--7-7--------------3--5-5--3--|
G|------------------------------|
D|------------------------------|
A|------------------------------|
E|------------------------------|
Whatever slips out of our hands

e|---7-7-7--5-------------|
B|-------------7----5---3-|
G|---------------7----4---|
D|------------------------|
A|------------------------|
E|------------------------|
Will find its way back to us once again

e|---------------------|
B|---------------------|
G|---------------------|
D|--5-5-5-4------------|
A|----------2-2-5------|
E|---------------------|

Will find its way back to us once again

e|---------------------|
B|---------------------|
G|---------------------|
D|--5-5-5-4------------|
A|----------2-2-5------|
E|---------------------|

Will find its way back to us once again

e|---------------------|
B|---------------------|
G|---------------------|
D|--5-5-5-4------------|
A|----------2-2-5------|
E|---------------------|

This tab is for John vocals...i think it is interesting to play.(mainly if u r not 
alone) ^_^ I know it is not the better tab will u find but i just

did this right now in the notepad lol.
Thanks for ur time.
Tap to rate this tab
# A B C D E F G H I J K L M N O P Q R S T U V W X Y Z