Song name
# A B C D E F G H I J K L M N O P Q R S T U V W X Y Z

John Frusciante - 666 tab

This is pretty much it

Ok first ever John tab, here goes
Its this for a while, then it changes...

e)--------------------------|
B)--------------------------|
G)--------------------------|
D)--------------------------|
A)----9-9---5-5-5555---7--5-|
E)--7-----------------------|

...to this

e)--------------------------|
B)--------------------------|
G)--------------------------|
D)--------------------------|
A)----7-7---3-3-3333---5--3-|
E)--5-----------------------|

That plays through the verse to, untill it gets to the bit where John screams "the like 
being murdered, which goes...

e)------------------------------------|
B)------------------------------------|
G)------------------------------------|
D)------------------------------------|
A)----3---3---7-5-3-----3---3---7-5-3-|
E)--5---5-------------5---5-----------|
Sorry but im not really sure about the solo, so just impro around the 12th fret on B and 
fun!

-Brendon
Tap to rate this tab
 
# A B C D E F G H I J K L M N O P Q R S T U V W X Y Z