Song name
# A B C D E F G H I J K L M N O P Q R S T U V W X Y Z

John Frusciante - Goals chords

Highlighted       Show chord diagrams
-------------------------------------------------------------------------------
			     Goals - John Frusciante
-------------------------------------------------------------------------------
Tabbed by: Michel
Email: michel_tabs@online.de

Tuning: standard



C            F
Sucking on a rhyme
C                          Am
You know I donít feel right
C                              F
These dreams they steal all my time
C                    Am    
They take it from my eyes
F                         G7
I donít try as much to feel
               C  G/B Am
Anything these days
F                            G7
I will try and reach the fields
                 C  G/B  Am
And there I will stay
F                G7
No time comes to me now
C                   G/B        Am
Thereís nothing Iím for or opposed to
 F                  C          Dm         G7
Thereís nothing Iím really supposed to do
		                     
Goals disrupt the past

   C       Em     Am    F      C     F        C
e|-12------12-----8-----8------8-----8------------|
B|---13------12-----10----10-----8-----10---------|
G|-----12------12-----9-----10-----9-----10---9---|
D|------------------------------------------------|
A|------------------------------------------------|
E|------------------------------------------------|

C		  F
One thing about a life
C				Am
It's an endless straight line
C		  F	
The dreams I once had
C				Am
They've taken me for a ride
F			     G7
Just show me the way to leave
		C  G/B  Am
That's all I need
F			     G7
Where I don't notice anything
		    C  G/B  Am		
That's where I will be
F		     G7		
Life doesn't come to me now
C		G/B	Am
And I wouldn't want it to
	F	  C    	    Dm	 G7		
There's nothing I'd like to do

Goals disrupt the past.

   C       Em     Am    F      C     F        C
e|-12------12-----8-----8------8-----8------------|
B|---13------12-----10----10-----8-----10---------|
G|-----12------12-----9-----10-----9-----10---9---|
D|------------------------------------------------|
A|------------------------------------------------|
E|------------------------------------------------|

C          F	     C			
There's nothing I realize
F    C     Dm   
no one I despise
C          F      C
Nothing to hide behind
     G  G7	     
This time.

C      F      C	
no one I despise
F       C    Dm   
nothing I realize
C          F      C
Nothing to hide behind
G	      C
This time.
Tap to rate this tab
 
# A B C D E F G H I J K L M N O P Q R S T U V W X Y Z