Song name
# A B C D E F G H I J K L M N O P Q R S T U V W X Y Z

John Frusciante - Murderers tab

Chorus
E-----------------------9--12---------------------------------------------|
B----12----9--10----10--------12--10-9-10---------------12----9--10----10-|
G-------------------------------------------------------------------------|
D-------------------------------------------------------------------------|
A--9----9---------9-----------------------9-9-9-9-9-9-9---9---------9-----|
E-------------------------------------------------------------------------|

E-----9---------------------------|
B-12----12--10-9--10--------------|
G---------------------------------|
D---------------------------------|  X2
A-------------------9-9-9-9-9-9---|
E---------------------------------|


Verses (Part 1)
E-------------------|
B--9----10---9----6-|
G--x----x----x----x-|
D--x----x----x----x-|  Strum these chords
A--7----9----7----4-|
E-------------------|

Verses (Part 2)
E-----------------------------------------------------------------------|
B---7---7---9---9-10---10-10-10-10---7---7---9---9-12--10---10-10-10-10-|
G-----------------------------------------------------------------------|
D-----------------------------------------------------------------------|
A-5---5---7---7---9--9--9--9--9----5---5---7---7---9---9---9--9--9--9---|
E-----------------------------------------------------------------------|

E---12-----12------------------------------------------------------|
B------------------9--10---10---10-10-10-10----7---7---9--9--9---6-|
G------------------------------------------------------------------|
D-0-----0----------------------------------------------------------|
A--------------7------9--------9--9--9--9----5---5---7---7--7----4-|
E------------------------------------------------------------------|

Bridge Part
E------------------------------------------|
B---9---10---9----12---10----9-----10------|
G---------------------------------------8--|
D------------------------------------------| X2
A-7---9----7---9-----9-----7----9----------|
E---------------------------------------7--|

End on: B-----10----|
        G-----x-----|
        D-----x-----|
        A-----9-----|

Song Structure:
Drum Intro
Chorus
Verse Pt. 1
Verse Pt. 2
Chorus
Bridge
Chorus
Verse Pt. 2
Chorus

I strum on the chorus part and pick on the verse pt. 2, but its whatever you're comfortable doing.
I'm pretty sure this is the correct way to play this awesome song.
Gotta love John Frusciante.

Rate it/comment on it. Thanks!
Tap to rate this tab
 
# A B C D E F G H I J K L M N O P Q R S T U V W X Y Z