John Frusciante - Instrumental Demo tab

Instrumental (Demo) 
John Frusciante
To Record Only Water For Ten Days (Unreleased Track)
Tabbed by Billy Scobbie
Youtube Highguy19 for videos


Acoustic Guitar

Part 1.

|---6-----6-----6-----6-----6----|
|--------------------------------|
|-------7-----7-----7-----7------|
|-5---5-----5-----5-----5-----5--|
|--------------------------------|
|--------------------------------|
                                   Plays 4 times
|---8-----8-----8-----8-----8----|
|--------------------------------|
|-------8-----8-----8-----8------|
|-5---5-----5-----5-----5-----5--|
|--------------------------------|
|--------------------------------|
 
*Fill
|---8-----8-----8-----8--10--8---|
|--------------------------------|
|-------8-----8-----8------------| Play 2nd time
|-5---5-----5-----5--------------|
|--------------------------------|
|--------------------------------|

Part 2.

 (1)
|-----------------------10-----8---|
|-----6-----6--------10------8---8-|
|---7-----7-------10-------8-----8-|
|-8-----8-----8--------------------|
|----------------------------------|
|----------------------------------|
 (2)
|-----------------------10-----8---|
|-----6-----6--------10------8-----|
|---7-----7-------10-------8-------| 2nd time round play (2)(1)(1)
|-8-----8-----8--------------------| 3rd time same as first
|----------------------------------|
|----------------------------------|
 (1)
|-----------------------10-----8---|
|-----6-----6--------10------8---8-|
|---7-----7-------10-------8-----8-|
|-8-----8-----8--------------------|
|----------------------------------|
|----------------------------------|

|----------------------------------|
|-6--6--6-6-6-6----10--10--10---8--|
|-7--7--7-7-7-7----10--10--10---8--|
|-8--8--8-8-8-8----10--10--10---8--|
|-8--8--8-8-8-8---(8)-(8)-(8)--(6)-|
|-6--6--6-6-6-6--------------------|


Electric Guitar

Part 1. (i)

|---------------------------------------------------------------|
|---------------------------------------------------------------|
|----------10---------------------------------------------------|
|-12~---10----12---13---------12----------------12--------------|
|-----------------------13-15----15--13---13-15----15--13---13--|
|---------------------------------------------------------------|

|---------------------------------------------------------------|
|---------------------------------------------------------------|
|-10------------------------------------------------------------|
|----12-12--12---12---12---12---12-12-----12---12---12----------|
|---------------------------------------------------------------|
|---------------------------------------------------------------|

|--------------------|
|--------------------|
|----------10--12----|
|--12-12-------------|
|--------------------|
|--------------------|

Part 2. (i)

|---------------------------------------------------------------|
|---------------------------------------------10----------------|
|------------------------------------10-------12b(14)--(14)bd12-|
|--12~-------8p7h8-8~------10/12---------12---------------------|
|---------------------------------------------------------------|
|---------------------------------------------------------------|

Part 1. (ii)

|-----------------13---------------------------------------------------|
|--11-----15---13-----15------------15------------------15-------------|
|-----------------------------15-17------17--15---15-17------17--15-15-|
|----------------------------------------------------------------------|
|----------------------------------------------------------------------|
|----------------------------------------------------------------------|

|---------------------------------------------|
|---------------------------------------------|
|-------------15~---15~---15~---15~---17b(19)-|
|--17-15-17-----------------------------------|
|---------------------------------------------|
|---------------------------------------------|

|-------------------------------|
|-------------------18---15-15--|
|--15~---15~---15~--------------|
|-------------------------------|
|-------------------------------|
|-------------------------------|

|-------------------------------------------------------------|
|--------------------15------------------15b(16)bd15----------|
|--15~---15~---15-17-----17--15-15~-------------------15--15~-|
|-------------------------------------------------------------|
|-------------------------------------------------------------|
|-------------------------------------------------------------|

Part 2. (ii)

|--------------------------------------------------------------|
|--15b(18)bd15-15-15~------------------------------------------|
|---------------------------15b(17)bd15--15-15p14p12--15p14p12-|
|--------------------------------------------------------------|
|--------------------------------------------------------------|
|--------------------------------------------------------------|

|--------------------------------------------------13-11----11----|
|--------------------------------------------------------15----15-|
|--15p14p12---15b(17)bd15--15--15p14p12--15p14p12-----------------|
|-----------------------------------------------------------------|
|-----------------------------------------------------------------|
|-----------------------------------------------------------------|

Part 1. (iii)

|---------------------------------------------------------------|
|--11--------------------------15-----------------15--18--------|
|---------12-------------15-17-----17--15---15-17---------------|
|--------------------------------------------------------17--17-|
|---------------------------------------------------------------|
|---------------------------------------------------------------|

|----------------------------------------------------------------|
|----------------------------------------------------------------|
|----------------------------------------------------------------|
|--17--15-----------------------17b(19)--------------------------|
|----------17-17---17---17---17-----------17---17b(18)-(18)-(18)-|
|----------------------------------------------------------------|

|---------------------------------------|
|---------------------------------------|
|---------------------------------------|
|--17----------------15-----------------|
|-----18-17-------------17--------------|
|-------------18------------15b(17)bd15-|

Part 2. (iii)

|----------------------------------------------|
|----------------------------------------------|
|------------------------------------10--------|
|--10/12------12-12-12------------12----12-12--|
|----------------------------------------------|
|----------------------------------------------|

|---------------------|
|---------------------|
|---------7-----------|
|--8--10-----8--------|
|---------------------|
|---------------------|
Tap to rate this tab
 
# A B C D E F G H I J K L M N O P Q R S T U V W X Y Z