Song name
# A B C D E F G H I J K L M N O P Q R S T U V W X Y Z

John Frusciante - Modern Love tab

John Frusciante - Modern Love(Live Amsterdam David Bowie Cover)
  Tabbed By Roland Broos


e|----------------------|---------------------------|
B|-7--8-------7--8------|-7--8-------7--8-----------|
G|-7--7-------7--7------|-7--7-------7--7-----------|
D|-7--7-------7--7------|-7--7-------7--7-----------|
A|-5--8-------8--8------|-5--5-------8--8-----------|
E|----------------------|------------x--x-----------|
I know when to go out 
And when to stay in 
And get things done

e|-8--8-------8--8------|-7--7----------------------|
B|-8--8-------8--8------|-8--8----------------------|
G|-9--9-------9--9------|-7--7-------5--5-5---------|
D|-10-10------10-10-----|-9--9-------5--7-7---------|
A|-10-10------10-10-----|-10-10------5--7-7---------|
E|-8--8-------8--8------|-x--x-------x--x-x---------|
I catch a paper boy
But things don't really change
I'm standing in the wind
But I never wave 

e|-0--2-2-----1--1------|-8--8-------3--3-----0--0--|
B|-1--3-3-----1--1------|-8--8-------3--3-----0--0--|
G|-2--4-4-----2--2------|-9--9-------4--4-----0--0--|
D|-2--x-x-----3--3------|-10-10------5--5-----2--2--|
A|-0--x-x-----3--3------|-10-10------5--5-----2--2--|
E|------------1--1------|-8--8-------3--3-----0--x--|
bye-bye		But I try	I try

e|-0--0-------0--0------|-7--7----------------------|
B|-1--1-------1--1------|-8--8----------------------|
G|-0--0-------0--0------|-7--7-------5--5-----------|
D|-2--2-------2--2------|-9--9-------5--7-----------|
A|-3--3-------3--3------|-10-10------5--7-----------|
E|-x--x-------x--x -----|-x--x-------x--x-----------|
Itís not really worth
It's just the power to charm
I'm lying in the rain
But I never wave 

e|-0--2------1--1--------|-8--8-------3--3----0--0--|
B|-1--3------1--1--------|-8--8-------3--3----0--0--|
G|-2--4------2--2--------|-9--9-------4--4----0--0--|
D|-2--x------3--3--------|-10-10------5--5----2--2--|
A|-0--x------3--3--------|-10-10------5--5----2--2--|
E|-----------1--1--------|-x--x-------x--x----0--x--|
bye-bye		But I try	I try
Never gonna fall for

e|-0--0------2--2--------|-0--0-------x--x----------|
B|-1--1------3--3--------|-0--0-------10-10---------|
G|-0--0------2--2--------|-0--0-------10-10---------|
D|-2--2------x--x--------|-2--2-------10-10---------|
A|-3--3------------------|-2--2-------8--8----------|
E|-x--x------------------|-0--x-------x--x----------|
modern love
Walks beside me
Walks on by
Gets me to the church on time





e|-0--0------2--2--------|-0--0-------x--x----------|
B|-1--1------3--3--------|-0--0-------10-10---------|
G|-0--0------2--2--------|-0--0-------10-10---------|
D|-2--2------x--x--------|-2--2-------10-10---------|
A|-3--3------------------|-2--2-------8--8----------|
E|-x--x------------------|-0--x-------x--x----------|
Terrifies me 
Makes me party
Puts my trust in God and Man 

e|-0--0------2--2--------|-0--0-------x--x----------|
B|-1--1------3--3--------|-0--0-------10-10---------|
G|-0--0------2--2--------|-0--0-------10-10---------|
D|-2--2------x--x--------|-2--2-------10-10---------|
A|-3--3------------------|-2--2-------8--8----------|
E|-x--x------------------|-0--x-------x--x----------|
No confession
No religion
Don't believe in Modern Love 


-solo-

e|-----------------------|------------x--x-----------|
B|-----------------------|------------3--3-----------|
G|-----------------------|------------4--4-----------|
D|-7--7--7--7------------|------------5--5-----------|
A|-------------7--10--10-|-77-8-7-5-3-5--5-----------|
E|-----------------------|------------x--x-----------|

e|--------------x--x-----|---------x--x--------------|
B|--------------x--x-----|---------3--3--------------|
G|--------------5--5-----|---------4--4------------2-|
D|----5---------5--5-----|-3-2-----5--5------------2-|
A|-5s7-7s5--3---3--3-----|-----5-3-5--5--5s7-5-3-2-0-|
E|--------------x--x-----|---------x--x--------------|

e|----1-1-1-1-1-1-1-1----|-0-0-0-0-----|
B|-1--0-0-0-0-0-0-0-0----|-0-0-0-0-----|
G|-2--0-0-0-0-0-0-0-0----|-0-0-0-0-----|
D|-2--2-2-2-2-0-0-0-0----|-2-2-2-2-----|
A|-0--3-3-3-3-2-2-2-2----|-2-2-2-2-----|
E|----x-x-x-x-3-3-3-3----|-0-0-0-0-----|

e|-8--8-------8--8------|-7--7----------------------|
B|-8--8-------8--8------|-8--8----------------------|
G|-9--9-------9--9------|-7--7-------5--5-----------|
D|-10-10------10-10-----|-9--9-------5--7-----------|
A|-10-10------10-10-----|-10-10------5--7-----------|
E|-8--8-------8--8------|-x--x-------x--x-----------|
Itís not really worth
It's just the power to charm
I'm lying in the rain
But I never wave 
e|-0--2------1--1--------|-0--0-------3--3----------|
B|-1--3------1--1--------|-1--1-------3--3----------|
G|-2--4------2--2--------|-0--0-------0--0----------|
D|-2--x------3--3--------|-2--2-------0--0----------|
A|-0--x------3--3--------|-3--3-------2--2----------|
E|-----------1--1--------|-x--x-------3--3----------|
bye-bye		But I try  	I try





e|-0--0------0--0--------|-2--2-------0--0----------|
B|-0--0------1--1--------|-3--3-------0--0----------|
G|-0--0------0--0--------|-2--2-------0--0----------|
D|-2--2------2--2--------|-x--x-------2--2----------|
A|-2--2------3--3--------|------------2--2----------|
E|-0--x------x--x--------|------------0--x----------|
Never gonna fall for modern love
Walks beside me
Walks on by
Gets me to the 

e|-x--x------0--0--------|-2--2-------0--0-----------|
B|-10-10-----1--1--------|-3--3-------0--0-----------|
G|-10-10-----0--0--------|-2--2-------0--0-----------|
D|-10-10-----2--2--------|-x--x-------2--2-----------|
A|-8--8------3--3--------|------------2--2-----------|
E|-x--x------x--x--------|------------0--x-----------|
church on time
Terrifies me 
Makes me party
Puts my trust in

e|-x--x------0--0--------|-2--2-------0--0-----------|
B|-10-10-----1--1--------|-3--3-------0--0-----------|
G|-10-10-----0--0--------|-2--2-------0--0-----------|
D|-10-10-----2--2--------|-x--x-------2--2-----------|
A|-8--8------3--3--------|------------2--2-----------|
E|-x--x------x--x--------|------------0--x-----------|
God and Man 
No confession
No religion
Don't believe in

e|-x--x------0--0--------|-2--2-------0--0-----------|
B|-10-10-----1--1--------|-3--3-------0--0-----------|
G|-10-10-----0--0--------|-2--2-------0--0-----------|
D|-10-10-----2--2--------|-x--x-------2--2-----------|
A|-8--8------3--3--------|------------2--2-----------|
E|-x--x------x--x--------|------------0--x-----------|
Modern Love 

Modern Love
Modern Love
Modern Love

e|-x--x------0--0--------|-2--2-------0--0------x-----|
B|-10-10-----1--1--------|-3--3-------0--0------10----|
G|-10-10-----0--0--------|-2--2-------0--0------10----|
D|-10-10-----2--2--------|-x--x-------2--2------10----|
A|-8--8------3--3--------|------------2--2------8-----|
E|-x--x------x--x--------|------------0--x------x-----|
Modern Love
Modern Love
Modern Love
Modern Love
Modern Love
Tap to rate this tab
 
# A B C D E F G H I J K L M N O P Q R S T U V W X Y Z