John Frusciante - How Deep Is Your Love chords

Highlighted       Show chord diagrams
Chords

    C7      C7*     Db6   Dbmajor7   Eb   Ebmajor7  Fm
e|---8---|---3---|---6---|---4---|---6---|---6---|---1---|
B|---8---|---4---|---6---|---6---|---8---|---8---|---1---|
G|---9---|---3---|---6---|---5---|---8---|---7---|---1---|
D|---8---|---5---|---6---|---6---|---8---|---8---|---3---|
A|---10--|---3---|---4---|---4---|---6---|---6---|---3---|
E|---x---|---x---|---x---|---x---|---x---|---x---|---1---|

    Fm7     Gm    G7sus4   Abm6   Abmajor7 Bsus4   Bsus4*
e|---8---|---3---|---8---|---x---|---3---|---x---|---1---|
B|---9---|---3---|---8---|---6---|---4---|---x---|---4---|
G|---8---|---3---|---10--|---4---|---5---|---8---|---3---|
D|---10--|---5---|---9---|---6---|---6---|---8---|---3---|
A|---8---|---5---|---10--|---6---|---x---|---8---|---1---|
E|---x---|---x---|---8---|---x---|---4---|---6---|---1---|

-----------------------------------------------------

song:		How Deep is your Love
interpret:	Bee Gees (covered by John Frusciante)
capo:		0
album:		-
setting:	Standard


HOW DEEP IS YOUR LOVE (JOHN FRUSCIANTE COVER)


Eb Ebmajor7 Abmajor7 Bbsus4 (2x)

            Eb          Gm       Fm7 C7
I know your eyes in the morning sun
           Fm7             G7      Bbsus4
I feel you touch me in the pouring rain 
        Eb              Gm     Cm7 
And the moment that you wander far from me 
             Fm             Bbsus4*
I wanna hold you in my arms again

Ab                      Gm
And you come to me on a summer breeze 
        Fm                         Dbmajor7
Keep me warm in your love and then softly leave 
         Gm             Abmajor7
And it's me you need to show...

                 Eb
How deep is your love?
                    Ebmajor7
(And Your Love, How Deep is your Love)
Abmajor7         Abm6
I really need to learn 
            Eb                   Db6
Cause we're living in a world of fools
            C7*
Breaking us down 
                            Fm
When they all should let us be
     Abm6            Eb Gm Bbsus4*
We belong to you and me

                Eb
How deep is your love?
                    Ebmajor7
(And Your Love, How Deep is your Love)
Abmajor7         Abm6
I really need to learn 
            Eb                   Db6
Cause we're living in a world of fools
            C7*
Breaking us down 
                            Fm
When they all should let us be
     Abm6            Eb Gm Bbsus4*
We belong to you and me

---------------------------------------------------

tabbed by Master_Pi
Tap to rate this tab
 
# A B C D E F G H I J K L M N O P Q R S T U V W X Y Z