John Frusciante - Mascara Live tab

John Frusciante - Mascara (Live)

Tune DOWN ONE-HALF STEP.
I left the chord names as if you were in standard tuning.
i.e. (Gm => 3 5 5 3 3) (Bb => x 1 3 3 3 1) etc.

Tabbed by B.Zurek


Gm                                            Bb
There's a powdered sun dripping through a porthole
Cm           D#
In a set design
A#                   F
Can you read your name?
      Cm                                     Gm
It's been so long since we bloomed from the inside
G#                   Cm              C#5               E   E F# G#
So where have you been since you fell off the flat edge?
                                E F# G#
Of the world under nothing sky
                         E F# G#
You've been lying right
                                 E     F#    E     E F# G#
They claim men you, dance under the moonlight

Do what you think is the sum
     E     F#     G#
Of the flesh and blood
                                  E F# G#
Above there's small birds gone to trembling
                            E F# E
In for thousands of your years

                                     You felt like history in your thighs
-----------------------------------------------------------------------------|
---1---1---1---1---1---1---1---8------1---1---1----1---1---1---1---8---------|
---2---2---2---2---2---2---2---10-----2---2---2----0---2---2---2---10--------|
-----------------------------------------------------------------------------|
-0-------0---0---0-------0----------0------------3---0-------0---------------|
-----0---------------0-------0----------0---1------------0-------0-----------|


You're the one that makes me realize
-------------------------------------|
---1---1---1---1---1---1---1---1-----|
---2---2---2---2---2---2---2---2-----|
-------------------------------------|
-0-----------3---0-------0-----------|
-----0---1-----------0-------0-------|


F                             C
Big water flowing through to tomorrow
F                          C     A#       G#     G
Apples and cake must have been your mistaaaaaake


Makes me feel like I'm alive
----------------------|
---1---1---1---1---1--|
---2---2---2---2---2--|
----------------------|
-0-------0-------0----|
-----0-------0--------|


You're my kind, You're my kind
------------------------------|
---1---1---1---1---1---1----1-|
---2---2---2---2---2---2----2-|
------------------------------|
---------3---0-------0----0---|
-0---1-----------0------------|


You always make me feel like a moon in my life all the time.
-------------------------------------|
---1---1---1---1---1---1---1---1-----|
---2---2---2---2---2---2---2---2-----|
-------------------------------------|
-0-----------3---0-------0-----------|
-----0---1-----------0-------0-------|


F                                            C
It always makes me feel good to know you're alive,
F                          C        A#   G#     G
Apples and cake must have been your snake in time.

Cm    D#       A#       G#           Cm    D#    A#   G#
I've been insane well the time is slow
Cm  D#          A#     G#      G
The Pope don't matter when the pawn is your sea
             Cm   D#            A#          G#
Don't you agree? When you're around I'm wound around your thumb.
Cm     D#     A#  G#
You wanna be numb
Cm     D#     A#  G#     G
inside the guuuuuuuuuuuuuuuun.
                                          Cm
All your billboards and lights are one big fight
Against the baby inside
That you've mistaken for paaaaaaaain (without you)
Tap to rate this tab
 
# A B C D E F G H I J K L M N O P Q R S T U V W X Y Z