Song name
# A B C D E F G H I J K L M N O P Q R S T U V W X Y Z

John Frusciante - Unchanging tab

the solo starts on 2:59

B - bend *whole step
L - legato
V - vibrato

E |---11B-9-9L-11V---6-6B---11B-9-9L-11V------11B-13B-11B-6-6B-----|
B |--------------------------------------9V------------------------|
G |----------------------------------------------------------------|
D |----------------------------------------------------------------|
A |----------------------------------------------------------------|
E |----------------------------------------------------------------|

E |---16-14---------16-14---------16-14----------------------------|
B |---------16-16---------16-16---------16-16----------------------|
G |----------------------------------------------------------------|
D |----------------------------------------------------------------|
A |----------------------------------------------------------------|
E |----------------------------------------------------------------|

E |---16-14---------16-14---------16-14----------------------------|
B |---------16-16---------16-16---------16-16----------------------|
G |----------------------------------------------------------------|
D |----------------------------------------------------------------|
A |----------------------------------------------------------------|
E |----------------------------------------------------------------|
Tap to rate this tab
 
# A B C D E F G H I J K L M N O P Q R S T U V W X Y Z