Song name
# A B C D E F G H I J K L M N O P Q R S T U V W X Y Z

John Frusciante - Murderers tab

John Frusciante - Murderers

Part1 x4
                 E1&3            E2&4
E|--------------|9-12-----------|--9-----------|
B|-12--9-10--10-|----12-10-9-10-|12-12-10-9-10-|
G|--------------|---------------|--------------|
D|--------------|---------------|--------------|
A|--------------|---------------|--------------|
E|--------------|---------------|--------------|

Part2 x2
      E1   E2
E|---|----|---|
B|-9-|-10-|-9-|
G|---|----|---|
D|---|----|---|
A|-7-|- 9-|---|
E|---|----|-9-|

Part3
  First time
E|--------------------------------------|
B|------------------10-10-1010101010-10-|
G|---11--11-11/13-13--------------------|
D|--------------------------------------|
A|-(9)-(9)------------------------------|
E|--------------------------------------|
  Second time
E|--------------------------------------|
B|------------------12-10-1010101010-10-|
G|---11--11-11/13-13--------------------|
D|--------------------------------------|
A|-(9)-(9)------------------------------|
E|--------------------------------------|
  Thrid time
E|---12--12-----------------------------|
B|---------------------10-1010101010-10-|
G|-----------------13-------------------|
D|--------------------------------------|
A|-(9)-(9)------------------------------|
E|--------------------------------------|
  Fourth Time
E|--------------------------------------|
B|--------------------------------------|
G|---11--11-11/13-13-10~----------------|
D|--------------------------------------|
A|-(9)-(9)------------------------------|
E|--------------------------------------|

Part1 x4

Part4 x4
            E1&3           E2&4
E|---------|--------------|-7-|
B|--9---10-|--9-----12-10-|-7-|
G|-9--11---|-9--11~-------|-8-|
D|---------|--------------|-9-|
A|---------|--------------|-9-|
E|---------|--------------|-7-|

Part1 x4 w/ overdriven guitar 2 (D-9-....)

Part3 x4

Part1 x4

End on

E|-----|
B|-10~-|
G|-----|
D|-----|
A|- 9~-|
E|-----|

Peace Nukkas,
?'s,comments,or corrections Mike la Tona @
Floydrose574@sbcglobal.net





Tap to rate this tab
 
# A B C D E F G H I J K L M N O P Q R S T U V W X Y Z