John Frusciante - Drift Down chords

Highlighted       Show chord diagrams
John Frusciante - Drift Down

Tabbed by: Fnkyfck
Email: johan_duhoux@hotmail.com

Another great song from John Frusciante! A record that didn't 
make it on the album 'To Record Only Water for Ten Days' but 
leaked afterwards. I noticed there wasn't a tab for it and it's an 
easy song to figure out. I'm almost completely sure that this tab 
is 100% correct, but see for yourselves. ;D

Tuning: EADGBe (Standard)

Intro:
Gm    A#   (2x)

Gm
Where you are

            A#
The real assembly

Gm
Of all

                     A#
The shapes, they're trembling

Cm                             D#
It's all a part of sail the well

A#             Gm
To meet your love

Cm                       D#
Did we fine the yesterday

A#                   Gm
Killing whole the hope?

A#          Gm    A#    
Hope

   Gm
She swims

            A#
Down the stream

  Gm
I hope

                      A#
I drift down the same vein

Cm                 D#
Taking the addiction

A#   Gm
I'm none

Cm                        D#
Fastened, it still descends

A#       Gm
And I'm loved

-This is how he plays the following chords:-

         A#         F         Gm                          Cm
e|----------------------------3---------------------------3------------------|
B|----------------------------3---------------------------4------------------|
G|----------7----------2------3---------(3x)--------------5------------------|
D|----------8----------3------5---------------------------5------------------|
A|--------8----------3--------5---------------------------3------------------|
E|-----6----------1-----------3---------------------------x------------------|

A#   F       Gm
A#   F       Gm
A#   F       Gm
Cm

A#       F       Gm
Failing all the cards

A#   F                Gm   
I'm beaten when I'm feeling

A#     F        Gm
Closer to the source

          Cm
Of your love to live

A#   F       Gm
A#   F       Gm
A#   F       Gm
Cm

A#    F          Gm
You work in the loss

A#  F               Gm
Of his finding his opinion

A#   F           Gm
Self-drowning in water

          Cm
But it's air I'm breathing

A#   F       Gm
A#   F       Gm    (2x)
A#   F       Gm
Cm

-Solo-

e|-----10----------------10---------------10---------------------------------|
B|---------10---11-----------10---11----------10---11----------13~-----------|
G|---------------------------------------------------------------------------|     (2x)
D|---------------------------------------------------------------------------|
A|---------------------------------------------------------------------------|
E|---------------------------------------------------------------------------|

A#

Tap to rate this tab
 
# A B C D E F G H I J K L M N O P Q R S T U V W X Y Z