Song name
# A B C D E F G H I J K L M N O P Q R S T U V W X Y Z

John Frusciante - Havana Affair tab

-----------------------------------------------------------------------------------
			          Havana Affair - John Frusciante
-----------------------------------------------------------------------------------
Tabbed by: Timcho
Email:murdoc007@ya.ru

Tuning: standard

The e-string is played by thumb that's how John plays it

Intro:

e|-x-x-x----5--x------------------------------------------------------------|
B|-7-7-7----7--5------------------------------------------------------------|
G|-8-8-8----7--6----repeat x2 times-----------------------------------------|
D|-9-9-9----7--7------------------------------------------------------------|
A|-x-x-x----5--x------------------------------------------------------------|
E|-7-7-7-------5------------------------------------------------------------|

Verse: (strumming is not shown)

e|-x----x----x----x---------------------------------------------------------|
B|-7----3----5----2---------------------------------------------------------|
G|-8----4----6----3---------------------------------------------------------|
D|-9----5----7----4---------------------------------------------------------|
A|-x----x----x----x---------------------------------------------------------|
E|-7----3----5----2---------------------------------------------------------|

Chorus:

e|-x----x----x----x---------------------------------------------------------|
B|-3----2----3----2---------------------------------------------------------|
G|-4----3----4----3---------------------------------------------------------|
D|-5----4----5----4---------------------------------------------------------|
A|-x----x----x----x---------------------------------------------------------|
E|-3----2----3----2---------------------------------------------------------|

e|-x----x--x---------------------------------------------------------|
B|-7----3--2---------------------------------------------------------|
G|-8----4--3---------------------------------------------------------|
D|-9----5--4---------------------------------------------------------|
A|-x----x--x---------------------------------------------------------|
E|-7----3--2---------------------------------------------------------|

Post-chorus:

e|-x----5--7----------------------------------------------------------------|
B|-7----7--9----------------------------------------------------------------|
G|-8----7--9----repeat x4 times---------------------------------------------|
D|-9----7--9----------------------------------------------------------------|
A|-x----5--7----------------------------------------------------------------|
E|-7------------------------------------------------------------------------|
Tap to rate this tab
 
# A B C D E F G H I J K L M N O P Q R S T U V W X Y Z