Song name
# A B C D E F G H I J K L M N O P Q R S T U V W X Y Z

John Frusciante - How Deep Is Your Love chords

Highlighted       Show chord diagrams
Here is my first tab/chords. I took others and changed it the way I play/hear it.
Every chord or holding chord(~) is for playing it a half bar long.
I hope you enjoy it.
(Sry for my English :D)

Chords suggestion

     C7     C#6   Dbmaj7     Eb   Ebmaj7    Fm
e|---3---|---6---|---4---|---6---|---6---|---1---|
B|---5---|---6---|---6---|---8---|---8---|---1---|
G|---3---|---6---|---5---|---8---|---7---|---1---|
D|---5---|---6---|---6---|---8---|---8---|---3---|
A|---3---|---4---|---4---|---6---|---6---|---3---|
E|---x---|---x---|---x---|---x---|---x---|---1---|

    Fm7     Gm      Abm6   Abmaj7   Bsus4 
e|---8---|---3---|---x---|---x---|---6---|
B|---9---|---3---|---4---|---4---|--(6)--|
G|---8---|---3---|---4---|---5---|---8---|
D|---10--|---5---|---3---|---5---|---8---|
A|---8---|---5---|---x---|---x---|---6---|
E|---x---|---x---|---4---|---4---|---6---|

-----------------------------------------------------

song:           How Deep is your Love
interpret:      Bee Gees (covered by John Frusciante)
capo:           0
album:          -
setting:        Standard


HOW DEEP IS YOUR LOVE (JOHN FRUSCIANTE COVER)


---Intro--- (Repeat 2x)

Eb ~ Ebmaj7 ~ Abmaj7 ~ Bbsus4 ~ (2x)


---Verse---

            Eb          Gm       Fm7 C7
I know your eyes in the morning sun
           Fm7             G7      Bbsus4 ~
I feel you touch me in the pouring rain 
        Eb              Gm     Cm7  ~
And the moment that you wander far from me 
             Fm  ~          Bbsus4* ~
I wanna hold you in my arms again

Ab  ~                   Gm ~ 
And you come to me on a summer breeze 
        Fm  ~                      Dbmaj7 ~
Keep me warm in your love and then softly leave 
         Gm  ~          Bbsus4  ~
And it's me you need to show...


---Chorus--- (Repeat 2x)

                 Eb  ~
How deep is your love?
                    Ebmaj7  ~
(And Your Love, How Deep is your Love)
Abmaj7  ~      Dbmaj7  ~
I really need to learn 
            Eb  ~                C#6  ~
Cause we're living in a world of fools
            C7 ~  ~  ~
Breaking us down 
                            Fm  ~
When they all should let us be
     Abm6  ~          Eb         Gm    Bbsus4 ~  ~  ~
We belong to you and me   La la la la la   Aaaaaaaaah


---------------------------------------------------

tabbed by Waldinator
(changed from Master_Pi)
Tap to rate this tab
 
# A B C D E F G H I J K L M N O P Q R S T U V W X Y Z