Song name
# A B C D E F G H I J K L M N O P Q R S T U V W X Y Z

John Frusciante - Leap Your Bar tab

Leap Your Bar by John Frusciante

This is a beautiful song written for piano, but here it is if you would like to have a 
go playing it on guitar. It isn't exactly what he plays, but it sounds nice and works 
well if you want to sing along while playing

Verse:

e|------2-0--------------2-0--------|
B|-----------2--2-------------2-2---|
G|----2----------------2------------|
D|--4---0------------4---0----------|
A|----0---4------------0---4--------|
E|--2-----------2----2----------2---|  X2

Interlude 1:

e|--------10-9----------|
B|-----10------10--10---|
G|--11------------------|
D|--0-------------------|
A|-----------7-----9----|
E|----------------------|  X2

Bridge:

e|--7--9-7-9-7--9-7-------------|
B|------------------10-9-7-10---|
G|------------------------------|
D|------------------------------|
A|--7---------------------------|
E|-------------------------10---|  X2

Chorus:

e|--------------------|
B|--------------------|
G|--6-6-6-4--4-4-4-2--|
D|--7-7-7-6--6-6-6-4--|
A|--9-9-9-7--7-7-7-5--|
E|--------------------|

Interlude 2:

e|--------12-9----------|
B|-----10------10--10---|
G|--11------------------|
D|--0-------------------|
A|-----------7-----9----|
E|----------------------|  X2

And that's it. This tab is essentially a combination of the other tabs however I added 
some notes to make the tab more interesting to play. I think the interlude sounds really 
nice if you get it right. Tuning is standard. the format of the song goes:

verse
interlude1
bridge
chorus
interlude 2

and play that all 3 times

hope you enjoy playing this!
============================================================================
Tap to rate this tab
 
# A B C D E F G H I J K L M N O P Q R S T U V W X Y Z