Song name
# A B C D E F G H I J K L M N O P Q R S T U V W X Y Z

John Frusciante - Glowe tab

Artist: John Frusciante
Album: Letur-Lefr EP
Song: Glowe (Track 3)
Tabbed by: Chili_Pat

Played with the neck pickup, tone knob rolled 3/4 back and played with a very tight clean sound.

e|----------------------------------------------------------------------------|
B|----------------------------------------------------------------------------|
G|----------------------------------------------------------------------------|
D|-14/12/14~--12--9--17--14--9~--9/13~/9--9/14/9--9--9--9--9/17/16--14--14----|
A|----------------------------------------------------------------------------|
E|----------------------------------------------------------------------------|

e|----------------------------------------------------------------------------|
B|----------------------------------------------------------------------------|
G|----------------------------------------------------------------------------|
D|-14/13--13/16~--11/13/11--9--9~--12/14--9~--9/17/16--14--14--14/13--13/16~--|
A|----------------------------------------------------------------------------|
E|----------------------------------------------------------------------------|

e|----------------------------------------------------------------------------|
B|----------------------------------------------------------------------------|
G|---------------------------21--21--21--20~----------------------------------|
D|-16/19~--/19--21~--21--21-------------------21b23r21b23~--/21~--21/16--16---|
A|----------------------------------------------------------------------------|
E|----------------------------------------------------------------------------|


e|----------------------------------------------------------------------------|
B|----------------------------------------------------------------------------|
G|----------------------------------------------------------------------------|
D|-16--16--16--16/17/16~--11/13~--9--9~--9/14/9--9--9--9--9/17/16--14--14-----|
A|----------------------------------------------------------------------------|
E|----------------------------------------------------------------------------|

e|----------------------------------------------------------------------------|
B|----------------------------------------------------------------------------|
G|--------------------------------------------------------------20------------|
D|-14/13--13/16~--9/11~--9~--9/14~--14/16~--16/17~--17--17/21~------19/21--21-|
A|----------------------------------------------------------------------------|
E|----------------------------------------------------------------------------|

e|----------------------------------------------------------------------------|
B|----------------------------------------------------------------------------|
G|----------------------------------------------------------------------------|
D|-21--21/16--16--16--16/14--14--16/17/16--11/13~/11--9--9/14/9--9--9--9p7h9--|
A|----------------------------------------------------------------------------|
E|----------------------------------------------------------------------------|

e|----------------------------------------------------------------------------|
B|----------------------------------------------------------------------------|
G|----------------------------------------------------------------------------|
D|-9--9--9--9/13--4~--4/7~--7/9~--9--9--9--9--9/14--14--14--14--14/13--13/16~-|
A|----------------------------------------------------------------------------|
E|----------------------------------------------------------------------------|

e|----------------------------------------------------------------------------|
B|----------------------------------------------------------------------------|
G|----------------------------------------------------------------------------|
D|-16/19~--19/21--21~--21--16/14~/16~-----------------------------------------|
A|----------------------------------------------------------------------------|
E|----------------------------------------------------------------------------|
Tap to rate this tab
 
# A B C D E F G H I J K L M N O P Q R S T U V W X Y Z