Song name
# A B C D E F G H I J K L M N O P Q R S T U V W X Y Z

John Frusciante - The Will To Death tab

THIS IS MY FIRST TAB. LISTENING TO THE SONG AND TRYING TO FIGURE OUT THE NOTES 
CORRECTLY. HOPE YOU LIKE IT.



e|------------------------------------------------------------------------------|
B|--------12---10-9---------9--12---10-9----------------------------------------|
G|------------------9----11--------------9-----11-13-11-9-----9-8-11------------|
D|------------------------------------------------------------------------------|
A|------------------------------------------------------------------------------|
E|------------------------------------------------------------------------------|


e|------------------------------------------------------------------------------|
B|--------12---10-9---------9--12---10-9---------------------------9------------|
G|------------------9----11--------------9-----11-13-11-9-----8h9----9----------|
D|------------------------------------------------------------------------------|
A|------------------------------------------------------------------------------|
E|------------------------------------------------------------------------------|


e|------------------------------------------------------------------------------|
B|--------12-14-12--------------12-14-12-------------12-14-12-------------------|
G|------------------14-1313--------------14-1313---------------14-13-14---------|
D|------------------------------------------------------------------------------|
A|------------------------------------------------------------------------------|
E|------------------------------------------------------------------------------|

e|----------------------------------------------------------x-------------------|
B|--------9-10-9-------------9-10-9-------9-----------------7-------------------|
G|----------------11-99--------------11-9---9------9\6------6-------------------|
D|----------------------------------------------------------7-------------------|
A|----------------------------------------------------------5-------------------|
E|----------------------------------------------------------x-------------------|


************************************

| /   slide up
| \   slide down
| h   hammer-on
| p   pull-off
| ~   vibrato
| +   harmonic
| x   Mute note
| b   Bend
| pb  Pre-bend
| br  Bend release
| pbr Pre-bend release
| brb Bend release bend

************************************
Tap to rate this tab
 
# A B C D E F G H I J K L M N O P Q R S T U V W X Y Z