Song name
# A B C D E F G H I J K L M N O P Q R S T U V W X Y Z

John Frusciante - Fallout tab

-----------------------------------------------------------------------------
                             Fallout - John Frusciante
-------------------------------------------------------------------------------
Tabbed by:Clapton 500
Tuning: Standard 

This is an acoustic live version of the song (live in Amsterdam)


Part one (intro) 

|---------------------|---------8----10---|
|-------------6-------|-------------------|
|-----------7---------|--7--9-------------|
|--------7------------|-------------------|  repeat this a couple of times
|------5--------------|-------------------| 
|---------------------|-------------------|

Part two 

Straight after the intro he plays this chords (each one measure): 

   Dm    C      C    Bb    Gm*     F*    C     Gm*       

e|-x-x---x-x---x-x---x-x---3-3-3---1-1---x-x---3-3-|
B|-6-6---5-5---5-5---3-3---3-3-3---1-1---5-5---3-3-|
G|-7-7---5-5---5-5---3-3---3-3-3---2-2---5-5---3-3-|
D|-7-7---5-5---5-5---3-3---5-5-5---3-3---5-5---5-5-|
A|-5-5---3-3---3-3---1-1---5-5-5---3-3---3-3---5-5-|
E|-x-x---x-x---x-x---x-X---3-3-3---1-1---x-x---3-3-|

Part three 

Then he continues with playing the following chords till the end of the song, 
again one measure each: 

   Dm      F*      C       Gm*

e|-x-x-x---1-1-1---x-x-x---3-x-3-3-3-3-3-3-|
B|-6-6-6---1-1-1---5-5-5---3-x-3-3-3-3-3-3-|
G|-7-7-7---2-2-2---5-5-5---3-x-3-3-3-3-3-3-|
D|-7-7-7---3-3-3---5-5-5---3-x-5-5-5-5-5-5-|
A|-5-5-5---3-3-3---3-3-3---3-x-5-5-5-5-5-3-|
E|-x-x-x---1-1-1---x-x-x---3-x-3-3-3-3-3-5-|
           
*= with tumb on 6th string

And that's basically the whole song, i'm pretty sure this is right but it's my 
first tab so please let me know what you think of it! :)
Tap to rate this tab
# A B C D E F G H I J K L M N O P Q R S T U V W X Y Z