Song name
# A B C D E F G H I J K L M N O P Q R S T U V W X Y Z

John Frusciante - Ratiug tab

Preview Tab
Tabbed by:Frazer H.
Email: frazer.hughes@gmail.com

Tuning:eBGDAE
This is how i play the intro, there are small variations, on this album john's playing
style is all about notes separated by lots of intervals, ie Bass note - treble note -
bass- treble, so use this as a basic guide and sort of improvise with jumping from low
notes to highnotes, its a fun way to play. This is intro, the distorted guitar part, then
after the distorted guitar ends, there is a less loud clean/chorus-y sounding guitar
that plays basically the same thing, and if i remember right when that soft / chorus guitar
starts to play something that isnt based off the structures below, if i remember right 
you just stay on the B string and sort of float up in B major.
Hope this helps you a little :)
The key of the song is B Major (i think...)


(C#minor Chord/C#Dorian is more or less the harmonic evniornment,
assuming the key is Bmajor)
e|---------------------------|------------------------------------|
B|---------------------------|------------------------------------|
G|---------------4----6------|-------6---4------------------------|
D|----------6------------4-6-|-4-6--------------------------------|
A|---4-4--4---4----4---------|-----4---4---4----------------------|
E|---------------------------|------------------------------------|


e|-----------------------------|---------------------------------|
B|-----------------------------|---------------------------------|
G|----------------6----8--6--4-|-----------4---3--1--------------|
D|----------6------------------|-4--6----------------------------|
A|-----------------------------|---------------------------------|
E|--0-0--0-----0----0----------|-------0-----0-------------------|
e|---------------------------------------------------------------|
Tap to rate this tab
# A B C D E F G H I J K L M N O P Q R S T U V W X Y Z