Song name
# A B C D E F G H I J K L M N O P Q R S T U V W X Y Z

John Frusciante - Mistakes chords

-------------------------------------------------------------------------------
                             Mistakes Ė John Frusciante
-------------------------------------------------------------------------------

Chords for Fruscianteís Mistakes, from the album PBX Funicular Intaglio Zone.

So I didnít show strum pattern because letís be honest, youre playing a
synth part so itís entirely up to you. So... the lyrics correspond to the
tab just above them, and the tab alignment corresponds to the timing of the
first line of lyrics for each verse.

Cheers.

Tabbed by: jchoop
Tuning: standard

e|-----------------------------------------------------------------------------|
B|-6-----4----6---------2------------------------------------------------------|
G|-6-----5----6---------3------------------------------------------------------|
D|-6-----6----8---------4------------------------------------------------------|
A|-4-----6----8---------4------------------------------------------------------|
E|-x-----x----x---------x------------------------------------------------------|

Mistakes help one see
That you make your own surroundings
Life is a dream
And is made by inwardly seeing what you want it to be

Success has its trappings
You judge youself based on how you think youíre seen
And you may guess how youíre spoken about
And try to fit into a box you canít get out of or move freely about

e|-----------------------------------------------------------------------------|
B|-5-------------9---7-------2-------------------------------------------------|
G|-6-------------9---8-------3-------------------------------------------------|
D|-7-------------9---9-------4-------------------------------------------------|
A|-7-------------7---9-------4-------------------------------------------------|
E|-5-------------x---7-------2-------------------------------------------------|

Respect who you are inside
Let your heart be your guide now
What others think says nothing about you
Just how you relate to what theyíre going through
And thatís not much
Does not say much

e|-----------------------------------------------------------------------------|
B|-3---------6----------------9-------------6----------------------------------|
G|-3---------7----------------9-------------7----------------------------------|
D|-5---------8----------------9-------------8----------------------------------|
A|-5---------8----------------7-------------8----------------------------------|
E|-3---------6----------------x-------------6----------------------------------|

Unless itís a friend when itís everything
Those who donít want you to be anything but what you are

e|-----------------------------------------------------------------------------|
B|-3--------3--------------------5-----------5------0-----0--------------------|
G|-4--------4-------2---2--------6-----------6------1-----1--------------------|
D|-4--------4-------4---4--------7-----------7------2-----2--------------------|
A|-2--------2-------4---4--------7-----------7------2-----2--------------------|
E|-x--------x-------2---2--------5-----------5------0-----0--------------------|

Do you feel this my sad emotion, do you feel it inside my baby
Forever is here in receptive motion, earth with a river inside my baby

Yeah oh yeah, Do you feel it inside your body
yeah oh yeah, Earth with a river inside my baby

Tap to rate this tab
 
# A B C D E F G H I J K L M N O P Q R S T U V W X Y Z