Song name
# A B C D E F G H I J K L M N O P Q R S T U V W X Y Z

John Frusciante - Failure 33 Object tab

Artist: John Frusciante
Album: Shadows Collide With People
Song: Failure33 Object

With delay.
Enjoy!

  Bm
E|-------------------------------------------------------|
B|-o--------------7-------------------------7------------|
G|-------------------------------------------------------|
D|-------------9--------9----------------9--------9------|
A|-o--------9--------9----------------9--------9---------|
E|---7--10-----------------10--7--10-----------------10--|

  Bm
E|-------------------------------------------------------||
B|---------------7-------------------------7-----------o-||
G|-------------------------------------------------------||
D|------------9--------9----------------9--------9-------||
A|---------9--------9----------------9--------9--------o-||
E|--7--10-----------------10--7--10-----------------10---||

  Cm
E|------------------------------------------------------------------||
B|-o-----------------8-----------------------------8--------------o-||
G|------------------------------------------------------------------||
D|---------------10---------10-----------------10---------10--------||
A|-o---------10---------10-----------------10---------10----------o-||
E|----8--11---------------------11--8--11---------------------11----||

  Bm
E|----------------------------------------------------------||
B|-o---------------7-------------------------7------------o-||
G|----------------------------------------------------------||
D|--------------9--------9----------------9--------9--------||
A|-o---------9--------9----------------9--------9---------o-||
E|----7--10-----------------10--7--10-----------------10----||

  Cm
E|--------------------------------------------------------------|
B|-----------------8-----------------------------8--------------|
G|--------------------------------------------------------------|
D|-------------10---------10-----------------10---------10------|
A|---------10---------10-----------------10---------10----------|
E|--8--11---------------------11--8--11---------------------11--|

   Bm
E|------------------------------------------------------|
B|---------------7-------------------------7------------|
G|------------------------------------------------------|
D|------------9--------9----------------9--------9------|
A|---------9--------9----------------9--------9---------|
E|--7--10-----------------10--7--10-----------------10--|

  Bm
E|------------------------------------------------------|
B|---------------7-------------------------7------------|
G|------------------------------------------------------|
D|------------9--------9----------------9--------9------|
A|---------9--------9----------------9--------9---------|
E|--7--10-----------------10--7--10-----------------10--|

    A                       G
E|-----------------------------------------------------|
B|--------------5-----------------------3--------------|
G|-----------------------------------------------------|
D|-----------7--------7--------------5--------5--------|
A|--------7--------7--------------5--------5-----------|
E|--5--9-----------------9--3--7-----------------7-----|

  Bm
E|------------------------------------------------------|
B|---------------7-------------------------7------------|
G|------------------------------------------------------|
D|------------9--------9----------------9--------9------|
A|---------9--------9----------------9--------9---------|
E|--7--10-----------------10--7--10-----------------10--|

    A                       G
E|--------------------------------------9-----------|
B|--------------5--------------------8--------8-----|
G|--------------------------------7--------7--------|
D|-----------7--------7-----5--9-----------------9--|
A|--------7--------7--------------------------------|
E|--5--9-----------------9--------------------------|

  Bm
E|----------------------------------------------------------||
B|-o---------------7-------------------------7------------o-||
G|----------------------------------------------------------||
D|--------------9--------9----------------9--------9--------||
A|-o---------9--------9----------------9--------9---------o-||
E|----7--10-----------------10--7--10-----------------10----||

      D           A           Bm
E|----------------------------------------7--------------||
B|-o--------7--------------------------7-----7---------o-||
G|----------------------6--------------------------------||
D|-------7-----7--------------------9-----------9--------||
A|-o--5--------------7-----7-----9---------------------o-||
E|----------------5-----------7--------------------10----||

    G            D           Em
E|-----------------------------------------7-------------||
B|-o------------8--------7-----------8-----------8-----o-||
G|-----------7--------------7-----------9----------------||
D|--------9-----------7-----------9-----------9----------||
A|-o--10-----------5-----------7--------------------7--o-||
E|-------------------------------------------------------||

    C            G             Am
E|------------8-------------------------------8------------|
B|---------8------------------------------10--------10-----|
G|------9---------------7--------------9---------9------9--|
D|--10---------------9-------------10----------------------|
A|---------------10--------10--12--------------------------|
E|---------------------------------------------------------|

    C             G             Am
E|---------------------------------------------8------------|
B|---------8-------------------------------10--------10-----|
G|------9----------------7--------------9---------9------9--|
D|--10--------10------9-------------10----------------------|
A|----------------10--------10--12--------------------------|
E|----------------------------------------------------------|


E|--12--10--8--------------------------------------------------|
B|-------------12--10--8---------------------------------------|
G|------------------------11--9--------------------------------|
D|-------------------------------12--10--9---------------------|
A|------------------------------------------12--10--9----------|
E|-----------------------------------------------------12--10--|

    Em
E|-----------------7-------------------------7--------------||
B|-o------------------------------------------------------o-||
G|--------------9-----9-------------------9-----9-----------||
D|-----------9-----------9-------------9-----------9--------|| Until the end of the song
A|-o--7--10-----------------10--7--10-----------------10--o-||
E|----------------------------------------------------------||
Tap to rate this tab
# A B C D E F G H I J K L M N O P Q R S T U V W X Y Z