Song name
# A B C D E F G H I J K L M N O P Q R S T U V W X Y Z

John Frusciante - Every Light Will Burn tab

Artist: John Frusciante
Album: To Record Only Water For Ten Days  
Song: Every Light Will Burn (Not Officially Released)

I tried to include as much as possible, but, the more you include in one tab, the 
more complicated it gets.
I'm sorry if it's hard to read. You can ignore the riffs if you want, and just 
play the chords on the second part of the song. 
-------------------------------------------------------------------------------------------

Riff 1
Everyone reacts through the whole
Riff 1
Everyone is just like the shade
Riff 2
I've been a spade, I follow
Riff 2
According to dark, I'm right
Riff 1&3
I've been this space, and I'm hollow
Riff 1&3
I'm digging through this ground
Riff 2&4
I fail to get to fallout
Riff 2&4
Thes _____

Riff 5
Every light will burn in this well
Riff 6
__________, I go all the way down

Riff 7x2
Riff 7                         Riff 7
Everyone asked me what it's for
Riff 7                           
Implodes in the freedom of before

Riff 7 Ending
 
E|---3-3-3-3-3-3-3-3-|
B|-------------------|
G|-------------------|
D|-------------------|
A|-------------------|
E|-------------------|

Fm        G#         D#
  I represent this place
Fm           G#      D#
  I can not be replaced
Bbm                     C#            Cm    
  But is that far enough  to never fall down

Fm   C# Cm &Riff 8]
Fm   C# Cm &Riff 8]
G#   D# &Riff 9   ] x3

Fm   C# Cm     &Riff 8
Fm   C# Cm     &Riff 8
G#         D#  &Riff 10

Fm
-----------------------------------------------------------------------------------

Riff 1
E|-----------------------------------------------------|
B|-----------------------------------------------------|
G|-----------------------------------------------------|
D|-----------------------------------------------------|
A|--3--3--3--3--3--3--3-----------------6--6--6--6-----|
E|-----------------------4--4--4--4--4-----------------|
Riff 2
E|-----------------------------------------------------|
B|-----------------------------------------------------|
G|-----------------------------------------------------|
D|-----------------------6--6--6--6--6-----------------|
A|--8--8--8--8--8--8--8-----------------6--6--6--6-----|
E|-----------------------------------------------------|
Riff 3
E|-------8------8----8---------------------------------|
B|-------8------8----8---------------------------------|
G|-----------------------------------------------------|
D|-----------------------------------------------------|
A|-----------------------------------------------------|
E|-----------------------------------------------------|
Riff 4
E|-------8------8----8---------------------------------|
B|-------9------9----9---------------------------------|
G|-------10-----10---10--------------------------------|
D|-----------------------------------------------------|
A|-----------------------------------------------------|
E|-----------------------------------------------------|
Riff 5 
 [8vb------------------------------------------------------------------------------]
E|--------------------------------------------------------------------------------|
B|--------------------------------------------------------------------------------|
G|--------------------------------------------------------------------------------|
D|-10-10-10-10-10---------8-8-8-8-8---------6-6-6-6-6---------5-5-5-5-5-----------|
A|----------------8-8-8-8-----------6-6-6-6-----------4-4-4-4-----------3-3-3-3---|
E|--------------------------------------------------------------------------------|
Riff 6
 [8vb------------------------------------------------------------------------------]
E|--------------------------------------------------------------------------------|
B|--------------------------------------------------------------------------------|
G|--------------------------------------------------------------------------------|
D|-10-10-10-10-10---------8-8-8-8-8---------6-6-6-6-6---------5-5-5-5-5-----------|
A|----------------6-6-6-6-----------4-4-4-4-----------3-3-3-3-----------2-2-2-2---|
E|--------------------------------------------------------------------------------|
Riff 7
 [8vb-----------------------------------------------------------------------------------------]  
E|--------------------------------------------------------------------------------------------|
B|--------------------------------------------------------------------------------------------|
G|--------------------------------------------------------------------------------------------|
D|------------------------------6-6-6-6-10-10-10-10-------------------------5-5-5-5-8-8-8-8-8-|
A|-3-3-3-3-3-3-6-6-6-6-10-10-10---------------------------------3-3-3-6-6-6-------------------|
E|--------------------------------------------------4-4-4-4-4-4-------------------------------|
Riff 7 Ending
 [8vb--------------------------------------------------------------------------------------------]
E|-----------------------------------------------------------------------------------------------|
B|-----------------------------------------------------------------------------------------------|
G|-----------------------------------------------------------------------------------------------|
D|------------------------------6-6-6-10-10-10-10----------------------------6-6-6-10-10-10-13-13|
A|-3-3-3-3-3-3-6-6-6-6-10-10-10-------------------------------6-6-6-10-10-10---------------------|
E|------------------------------------------------4-4-4-4-4-4------------------------------------|
Riff 8
E|------------------------|
B|----4-6--4-6--4-6--4-6--|
G|------------------------|
D|------------------------|
A|------------------------|
E|------------------------|
Riff 9
  1st time--------------|__2nd time------------------|___3d time----------------|
E|-----------------------||---------------------------||---------------------------|
B|--1-4--1-4--1-4--1-----||----1-4--1-4--1-4--1---1-1-||----1-4--1-4--1-4--1-1-1-1-|
G|-----------------------||---------------------------||---------------------------|
D|-----------------------||---------------------------||---------------------------|
A|-----------------------||---------------------------||---------------------------|
E|-----------------------||---------------------------||---------------------------|
Riff 10
E|------------------------|
B|---1-4-1------4-8-4-----|
G|------------------------|
D|------------------------|
A|------------------------|
E|------------------------|
Tap to rate this tab
# A B C D E F G H I J K L M N O P Q R S T U V W X Y Z