Song name
# A B C D E F G H I J K L M N O P Q R S T U V W X Y Z

John Frusciante - Wayne tab

Song: Wayne
Artist: John Frusciante

The backing track for this song is very simple. It's based on the B Major 
progression B - Eb - G#m - E. This is the picking and because it is a backing
track it's not necessary for you to include many embellishments. John himself
alternates the picking every now and then. Once you have it looped it is a 
very sweet tune to solo to. The solo itself is very long and would take a lot 
to tab out note for note so I decided to leave you with this. Good Luck!

     B
e|--------------------------------------------------------------------------|
B|------------------4--------------4--------------4--------------4----------|
G|-------------4--------------4--------------4--------------4---------------|
D|--------4--------------4--------------4--------------4--------------------|
A|---2----------------------------------------------------------------------|
E|--------------------------------------------------------------------------|
     Eb
e|--------------------------------------------------------------------------|
B|------------------8--------------8--------------8--------------8----------|
G|-------------8--------------8--------------8--------------8---------------|
D|--------8--------------8--------------8--------------8--------------------|
A|---6----------------------------------------------------------------------|
E|--------------------------------------------------------------------------|
     G#m
e|--------------------------------------------------------------------------|
B|------------------12-------------12-------------12-------------12---------|
G|-------------13-------------13-------------13-------------13--------------|
D|--------13-------------13-------------13-------------13-------------------|
A|---11---------------------------------------------------------------------|
E|--------------------------------------------------------------------------|
     E
e|--------------------------------------------------------------------------|
B|------------------9--------------9--------------9--------------9----------|
G|-------------9--------------9--------------9--------------9---------------|
D|--------9--------------9--------------9--------------9--------------------|
A|---7----------------------------------------------------------------------|
E|--------------------------------------------------------------------------|
Tap to rate this tab
# A B C D E F G H I J K L M N O P Q R S T U V W X Y Z