Song name
# A B C D E F G H I J K L M N O P Q R S T U V W X Y Z

John Frusciante - Ratiug tab

Artist- John Frusciante
Song- Ratiug (solo)
Album- PBX funicular Intaglio Gigilo Zone
Tabbed by frazer h.

This is how to play the solo at the end of RATIUG that comes in right after the rapper
Kinetic 9 finishes his verse. Key is C# major (orA#minor [natural minor])  .

The style that Froosh-bag is play here and on this album isnt just playing octaves note 
for note
 ba ck and forth, which is kindof was what I thought was happening on PBX (and outsides ep)
at first, but what is actually doing is more like playing one melody in a high range and 
a different
low range melody line in alternate steps within a single passage playing one or a few notes
of one melody and then the other and then back and then forth in alternating step so it all
spound like one unified psychedelic sonic air puzzle
.
The timing and measures are pretty much in the right places and the chord 
progression/bass goes
 A#minor | G#major |

D#minor | F# major|
   and repeats that 4 bar pattern for the rap section and thru the solo outro

Enjoy. Any correction or comment feel free below or email me at frazer.hughes@gmail.com


Solo comes in at (5:46)
E|---------13---11|-----------------------------|
B|--6--------------|----14----13----------------|
G|------10----8---|----------------15----13-----|
D|-----------------|-11----13-------------------|
A|-----------------|-------------11----11-------|
E|----6------------|----------------------------|


E|-----------------------------|---------------------------------------|
B|------------14----13----11---|-9-------------------------------------|
G|--13~~ ----------------------|------15--------------10---13---11-----|
D|--------11-----------11---11-|---11----------11-13-------------------|
A|-----11--------13------------|---------------------------------------|
E|-----------------------------|---------13-13------------9----11------|


e|-------------------------|-----------------------11------13|
B|--------------14----13---|-11--11-13----------13-------11--|
G|-8-10--------------------|---13-----13----13---------------|
D|------11-8---------------|---------------------------------|
A|-----------13----13----13|-------------13-----------13-----|
E|-------------------------|---------------------------------|


                               ~~~~~~
e|----11-----------------9-13-11-11-11|---13-------------|
B|-----------13----14-----------------|-----14---13--11--|
G|-------10---------------------------|------------------|
D|-10-----------11--------------------|------------------|
A|------------------------------------|------------------|
E|--------------------11~-------------|-14-----14--14--14|



e|----------------|-------------------------|
B|-------------13-|------------------13-----|
G|------13--------|---15--------------------|
D|-----------15---|-------------------------|
A|-13-16--13------|11----13----11-13----15--|
E|----------------|---------11--------------|



e|----------------13-|------------18---------------------|
B|-------------------|-----------------------------------|
G|-15----------------|10-13----11----------------13------|
D|-------15----------|---------------------15------------|
A|----13-------13----|------11--------15------------15-16|
E|----------11-------|------------------13----11---------|
 
Tap to rate this tab
# A B C D E F G H I J K L M N O P Q R S T U V W X Y Z