Song name
# A B C D E F G H I J K L M N O P Q R S T U V W X Y Z

John Frusciante - Scratches tab

-------------------------------------------------------------------------------
                            SCRATCH - John Frusciante
-------------------------------------------------------------------------------
Tabbed by: Tim
E-mail: stupidmobbybob@gmail.com

Tuning: standard

Verse/Main theme:
e|---------------------------------------------------------------------------|
B|---------------------------------------------------------------------------|
G|5-5--7-7--8-8----8---------8--5-5------------------------------------------|
D|5-5--7-7--8-8----8--8-8----8--5-5------------------------------------------|
A|3-3--5-5--6-6----6--8-8----6--3-3------------------------------------------|
E|--------------------6-6----------------------------------------------------|
Chorus:
e|---------------------------------------------------------------------------|
B|---------------------------------------------------------------------------|
G|5-5-------3-3-----------------6--------------------------------------------|
D|5-5--5-5--3-3--3-3---x4-------6--------------------------------------------|
A|3-3--5-5--1-1--3-3------------4--------------------------------------------|
E|-----3-3-------1-1---------------------------------------------------------|

************************************

| /   slide up
| \   slide down
| h   hammer-on
| p   pull-off
| ~   vibrato
| +   harmonic
| x   Mute note
| b   Bend
| pb  Pre-bend
| br  Bend release
| pbr Pre-bend release
| brb Bend release bend

************************************
Tap to rate this tab
# A B C D E F G H I J K L M N O P Q R S T U V W X Y Z