Song name
# A B C D E F G H I J K L M N O P Q R S T U V W X Y Z

John Frusciante - Tiny Dancer tab

-------------------------------------------------------------------------------
                             John Frusciante - Tiny Dancer
-------------------------------------------------------------------------------
Tabbed by:Frusciple
E-mail:

Tuning:Standard EADGBe
   
e|---------------------------------------------------------------------------|
B|--6---6-6-6------5---5-5-5------6---6-6-6-6-6--------6---6-6-6-------------|
G|--5---5-5-5------5---5-5-5------7---7-7-7-7-7--------5---5-5-5-------------|
D|--7---7-7-7------5---5-5-5------7---7-7-7-7-7--------7---7-7-7-------------|
A|--8---8-8-8------7---7-7-7------5---5-5-5-5-5---5-7--8---8-8-8-------------|
E|---------------------------------------------------------------------------|
                                                                                   
e|-----------------x---x-x-x-x-x---------------------------------------------|
B|--5---5-5-5------3---3-3-3-3-3---------------------------------------------|
G|--5---5-5-5------2---2-2-2-2-2---------------------------------------------|
D|--5---5-5-5------0---0-0-0-0-0---------------------------------------------|
A|--7---7-7-7------0---0-0-0-0-0---------------------------------------------|
E|-----------------x---x-x-x-x-x---------------------------------------------|
  
Play that twice, but on the second time, play that muted D chord thing for a bit longer.
After that, play it again twice and you're done.
Tap to rate this tab
# A B C D E F G H I J K L M N O P Q R S T U V W X Y Z