Song name
# A B C D E F G H I J K L M N O P Q R S T U V W X Y Z

John Frusciante - Second Walk tab

Cool song, too short though, just like this cold. 

Intro
e|--------------|
B|---14~~~------|
G|--------------|
D|--------------|
A|--------------|
E|--------------|
 
             
Riff 1
     A             E             F#m
e|---5-5---5-5-5---0-0---0-0-0---2-2---2-2-2---2-2---2-2-2---|
B|---5-5---5-5-5---0-0---0-0-0---2-2---2-2-2---2-2---2-2-2---|
G|---6-6---6-6-6---1-1---1-1-1---2-2---2-2-2---2-2---2-2-2---| 
D|---7-7---7-7-7---2-2---2-2-2---4-4---4-4-4---4-4---4-4-4---| 
A|---7-7---7-7-7---2-2---2-2-2---4-4---4-4-4---4-4---4-4-4---| 
E|---5-5---5-5-5---0-0---0-0-0---2-2---2-2-2---2-2---2-2-2---|


Solo 1
e|------12h14-14-14----12h14-14-14----12h14-14-14----12h14-14-14------|
B|--------------------------------------------------------------------|
G|--------------------------------------------------------------------| x 2
D|--------------------------------------------------------------------|
A|--------------------------------------------------------------------|
E|--------------------------------------------------------------------|

e|---14p12p9----14p12p9----14p12p9----14p12p9---|   |-------12-----------|
B|----------------------------------------------|   |-12b14----12b14r12--|
G|----------------------------------------------|x2 |--------------------|
D|----------------------------------------------|   |--------------------|
A|----------------------------------------------|   |--------------------|
E|----------------------------------------------|   |--------------------|
     

Through the Third verse Guitar 1 plays one of each chord with some weird phaser effect. 

A   E   F#m  

A keyboard plays a cool wee riff in the background, this is it for guitar, i think...


e|-18-17-15----15----------15----15-17-18-17-15-----------------------|
B|----------18----18-15-18----18----------------18--------------------|
G|--------------------------------------------------------------------|
D|--------------------------------------------------------------------|
A|--------------------------------------------------------------------|
E|--------------------------------------------------------------------|

e|-18-17-15----15----------15----15-17-15-----------------------------|
B|----------18----18-15-18----18----------18-15-18--------------------|
G|--------------------------------------------------------------------| 
D|--------------------------------------------------------------------|
A|--------------------------------------------------------------------|
E|--------------------------------------------------------------------|

Whole thing through Twice


Solo 2
e|-------------------------------------------------------------------|
B|-12b14--12b14--12b14--12b14--14--14--14--14--10----14p10-----------|
G|------------------------------------------------11-------11-9-11~~-|
D|-------------------------------------------------------------------|
A|-------------------------------------------------------------------|
E|-------------------------------------------------------------------|

e|-9-12-9-12-14----------12---------|
B|--------------14~~----------------|
G|--------------------13b14----11~~-|
D|----------------------------------|
A|----------------------------------|
E|----------------------------------|

Outro

Hit guitar really hard beside the bridge. 
Tap to rate this tab
 
# A B C D E F G H I J K L M N O P Q R S T U V W X Y Z