Guitaretab - guitar tabs
Song name
# A B C D E F G H I J K L M N O P Q R S T U V W X Y Z

John Frusciante - Song To Sing When Im Lonely tab

Song to sing when Iím lonely Ė John Frusciante

Intro:

e---------------------6------------4------------4------|
B--------7----------7---7--------6---6--------4---4----|
G------8---8------8-------8----6-------6------------4--|
D----9-------9--8------------6--------------6----------|
A--9--------------------------------------6------------|
E------------------------------------------------------|

e---------------------6-----------4------|
B-----------7-----------7-----------6----|
G-------------8-----8-----8-----6-----6--|
D-----9-----------8-----------6----------|
A----9----9-----6-----------4------------|
E--7----7--------------------------------|

e--------4-----4-----4--------|
B----------------------4---7--|
G------------------------4----|
D------6----------------------|
A----6-------6-----6----------|
E--4-------4-----4------------|

Verse1:

    B                   Ebm
A song to play when I'm lonely

C#                    G#m
Win and never play a game again

B                       Ebm
No one to face when I'm falling

  C#                         G#m
Holding tight to dreams that never end

Chorus1:

        F#        C#             G#m
I'll be you.... I do.... I'll be you.....

                      F#     C#    G#m
No one's afraid to be called by another name

No one dares to be

  F#                C#             G#m -(strumming dead strings)
e--6----6-----6/9-9------9------9--7-----7----|
B----7----7---------9------9---------9--------|
G------6----6---------10-----10--------8------|
D---------------------------------------------|
A---------------------------------------------|
E---------------------------------------------|
  Put............. down where they don't belong

G#m                 F#   C#
No where's anyone's reason

G#m                  F#    C#   B
Everything dying and leaving

B
Out with these faults and you make me a baby

    F#   G#m
e---6-----7-----|
B---7-----9-----|
G---6-----8-----|
D---------------|
A---------------|
E---------------|

B
Faking a movement by no ones seeing it

    F#   G#m
e---6-----7-----|
B---7-----9-----|
G---6-----8-----|
D---------------|
A---------------|
E---------------|

  F#     G#m           F#    G#m
e--6-------7--------------6------7----|
B--7-------9--------------7------9----|
G--6-------8--------------6------8----|
D-------------------------------------|
A-------------------------------------|
E-------------------------------------|
  No one always finds peace flung

  F#     G#m           F#    G#m
e--6-------7--------------6------7----|
B--7-------9--------------7------9----|
G--6-------8--------------6------8----|
D-------------------------------------|
A-------------------------------------|
E-------------------------------------|
  No one chooses to beat my pride down

Verse2:

B                    Ebm
Symbols pierce right through me

C#                 G#m
People fail to be drawn up

B                      Ebm
Sunlight to fate accumulates

C#                 G#m
Loving pain to be clung to...By...

Chorus2:

 F#      C#     G#m
Lu....minous bodies

                 F#     C#        G#m
Only waiting for long signs to be wrong

 -(strumming dead strings)
And true to us,

G#m                 F#  C#
Out of place in my own time

G#m                    F#   C#   B
Drowning thinking that I'm dry

B
Holding on to facts that will never be proven

    F#   G#m
e---6-----7-----|
B---7-----9-----|
G---6-----8-----|
D---------------|
A---------------|
E---------------|

B
Faking an action coz no one is looking
[ Tab from: http://www.guitaretab.com/j/john-frusciante/48766.html ]
    F#   G#m
e---6-----7-----|
B---7-----9-----|
G---6-----8-----|
D---------------|
A---------------|
E---------------|

  F#    G#m      F#   G#m
e--6------7---------6-----7--|
B--7------9---------7-----9--|
G--6------8---------6-----8--|
D----------------------------|
A----------------------------|
E----------------------------|
  Hello when I'm crashing

  F#      G#m               F#       G#m
e--6--------7-------------------6---------7----|
B--7--------9-------------------7---------9----|
G--6--------8-------------------6---------8----|
D----------------------------------------------|
A----------------------------------------------|
E----------------------------------------------|
  Feel nothing when my life flashes before my eyes

   F#                          C#
e--6--------6--------6/9--9---------9---------9---|
B-----7--------7-------------9---------9----------|
G--------6--------6-------------10--------10------|
D-------------------------------------------------|
A-------------------------------------------------|
E-------------------------------------------------|
 .......................................Should have

   G#m
e---7--------7--------7-----11--9--7------|
B------9--------9--------9------------9---|
G---------8--------8----------------------|
D-----------------------------------------|
A-----------------------------------------|
E-----------------------------------------|
 threw me down? Is the content so much?

   F#                          C#
e--6--------6--------6/9--9---------9---------9---|
B-----7--------7-------------9---------9----------|
G--------6--------6-------------10--------10------|
D-------------------------------------------------|
A-------------------------------------------------|
E-------------------------------------------------|
 .......................................Should have

   G#m
e---7--------7--------7-----11--9--7------|
B------9--------9--------9------------9---|
G---------8--------8----------------------|
D-----------------------------------------|
A-----------------------------------------|
E-----------------------------------------|
 threw me down? Is the content so much?


   F#                          C#
e--6--------6--------6/9--9---------9---------9---|
B-----7--------7-------------9---------9----------|
G--------6--------6-------------10--------10------|
D-------------------------------------------------|
A-------------------------------------------------|
E-------------------------------------------------|
(Iíll be you, I do)..yeah..(Iíll be you)..Shouldíve

   G#m
e---7--------7--------7-----11--9--7------|
B------9--------9--------9------------9---|
G---------8--------8----------------------|
D-----------------------------------------|
A-----------------------------------------|
E-----------------------------------------|
 threw me down? Is the content so much?

   F#                          C#
e--6--------6--------6/9--9---------11--9---|
B-----7--------7-------------9--------------|
G--------6--------6-------------10----------|
D-------------------------------------------|
A-------------------------------------------|
E-------------------------------------------|
 (Iíll be you, I do)..yeah..(Iíll be you)..Shouldíve

   G#m
e---7--------7--------7------|
B------9--------9-----9------|
G---------8--------8--8------|
D----------------------------|
A----------------------------|
E----------------------------|
 threw me down? Is the content so mu.....ch?


Chord pattern:

	E  A  D  G  B  E

F#:	x  4  4  3  2  2
C#:	x  4  6  6  6  4
G#m:	4  6  6  4  4  4
B:	7  9  9  8  7  7
Ebm:	x  6  8  8  7  6

Chords are for the rhythm and the tabs are for the lead, hope you get it.. ‹ please do send me comments or suggestions - Nets6ranking@yahoo.com
Related for Song To Sing When Im Lonely tab