Guitaretab - guitar tabs
Song name
# A B C D E F G H I J K L M N O P Q R S T U V W X Y Z

John Frusciante - Usually Just A T-shirt 3 tab

-------------------------------------------------------------------------------
	       Usually Just a T-shirt #3 - John Frusciante
-------------------------------------------------------------------------------
Tabbed by: Ed
Email: eddidaz [at] hotmail [dot] com


Tuning: Standard


| /  slide up
| \  slide down
| h  hammer-on
| p  pull-off
| ~  vibrato
| +  harmonic
| x  Mute note


Chords used:

     C     Em     Dm      F     A#maj
E -- 3 ---- 7 ---- 3 ---- 1 ---- 6 ----
B -- 5 ---- 8 ---- 3 ---- 1 ---- 6 ----
G -- 5 ---- 9 ---- 4 ---- 2 ---- 7 ----
D -- 5 ---- 9 ---- 5 ---- 3 ---- 8 ----
A -- 3 ---- 7 ---- 5 ---- 3 ---- 8 ----
E -- x ---- x ---- x ---- x ---- x ----

    C           Em           Dm
E ------------------7-----------------------3-------------------------|
B -----5---------------8--------3--------------3----------------------|
G --------5---------------9--------4--------------4-------------------|
D -----------5------------------------5-------------------------------|
A --3------------7-----------------------5----------------------------|
E ----------------------------3---------------------------------------|

A dove is a glove that I wear on my heart,
You know I like to dress smart,


    C           Em               Dm
E ------------------7-------------3-----------------------------------|
B -----5---------------8----------3-----------------------------------|
G --------5---------------9-------4-----------------------------------|
D -----------5--------------------5-----------------------------------|
A --3------------7----------------5-----------------------------------|
E --------------------------------x-----------------------------------|

It doesn't have any part in the world of fashion,


    C           Em           Dm
E ------------------7-----------------------3-------------------------|
B -----5---------------8--------3--------------3----------------------|
G --------5---------------9--------4--------------4-------------------|
D -----------5--------------------------------------------------------|
A --3------------7----------------------------------------------------|
E ----------------------------3---------------------------------------|

And your there to put me down,
And I'm sick of the fans that follow me around,

[ Tab from: http://www.guitaretab.com/j/john-frusciante/49951.html ]
    C              Em
E -----------------7---------------------------------------------------|
B -----5--------------8------------------------------------------------|
G --------5--------------9---------------------------------------------|
D -----------5---------------------------------------------------------|
A --------------7------------------------------------------------------|
E --3------------------------------------------------------------------|

I would like the sky but there's no reason why,
Should say this...


    Dm                A#maj
E --3--3--3--3--3--3--6--6--|
B --3--3--3--3--3--3--6--6--|
G --4--4--4--4--4--4--7--7--|
D --5--5--5--5--5--5--8--8--|
A --5--5--5--5--5--5--8--8--|
E --x--x--x--x--x--x--x--x--|

world has the nose of a girl turned up so loud...

   Dm                A#maj
E --3--3--3--3--3--3--6--6--|
B --3--3--3--3--3--3--6--6--|
G --4--4--4--4--4--4--7--7--|
D --5--5--5--5--5--5--8--8--|
A --5--5--5--5--5--5--8--8--|
E --x--x--x--x--x--x--x--x--|

...that it would ring,
It's a cloud...


    F
E --x--x--|
B --1--1--|
G --2--2--|
D --3--3--|
A --3--3--|
E --x--x--|

...I've never been here,


   (Dm)
E}--3--3--3--3--3--3~~~~~~~~
B}--3--3--3--3--3--3~~~~~~~~
G}--4--4--4--4--4--4~~~~~~~~
D}--5--5--5--5--5--5~~~~~~~~
A}--5--5--5--5--5--5~~~~~~~~
E}--x--x--x--x--x--x~~~~~~~~

Although you're physically near,


      C           Em           Dm
E ------------------7-----------------------3-------------------------|
B -----5---------------8--------3--------------3----------------------|
G --------5---------------9--------4--------------4-------------------|
D -----------5------------------------5-------------------------------|
A --3------------7-----------------------5----------------------------|
E ----------------------------3---------------------------------------|

Your pushing me away to decay like the day,

    C           Em           Dm
E ------------------7-----------------------3--3---3/6--6-------------|
B -----5---------------8--------3-----------3--3---3/6-6h8p6h8p6h8p6-|
G --------5---------------9--------4--------4--4---4/7--7-------------|
D -----------5------------------------5------------5/8--8-------------|
A --3------------7---------------------------------5/8--8-------------|
E ----------------------------3--------------------x/x--x-------------|


That I loved......
Related for Usually Just A T-shirt 3 tab