Song name
# A B C D E F G H I J K L M N O P Q R S T U V W X Y Z

John Frusciante - The Will To Death tab

-------------------------------------------------------------------------------
THE WILL TO DEATH (SOLO) - John Frusciante
-------------------------------------------------------------------------------
Tabbed by: leakeg
Email: leakeg02@student.uwa.edu.au

Tuning: EADGBe

Its a bit scratchy in a few places, so if you have any corrections please post them up!

e|------------------------|------------------------------------------|
B|--12--------------------|-12---------------------------------------|
G|-------14-13------11-13-|-----14-13-----11/13-11------------11-----|
D|-------------14---------|-----------14-----------14---14p11--------|
A|------------------------|------------------------------------------|
E|------------------------|------------------------------------------|

e|------------------------|------------------------------------------|
B|--12--------------------|-12---------------------------------------|
G|-------14-13------11-13-|-----14-13-----11/13-11------------11-13--|
D|-------------14---------|-----------14-----------14---14p11--------|
A|------------------------|------------------------------------------|
E|------------------------|------------------------------------------|

e|--12--14--12-------|-12--14--12--------|-12--14--12----------------|
B|-------------14-13-|-------------14-13-|------------14/13----------|
G|-------------------|-------------------|------------------14-------|
D|-------------------|-------------------|---------------------------|
A|-------------------|-------------------|---------------------------|
E|-------------------|-------------------|---------------------------|

e|--12--14--12-------|-12--14--12-------------------------|
B|-------------14-13-|-------------14/13-----------11-----|
G|-------------------|-------------------14--14p11--------|
D|-------------------|------------------------------------|
A|-------------------|------------------------------------|
E|-------------------|------------------------------------|

| / slide up
| p pull-off
===============================================================================
Tap to rate this tab
# A B C D E F G H I J K L M N O P Q R S T U V W X Y Z