Song name
# A B C D E F G H I J K L M N O P Q R S T U V W X Y Z

John Frusciante - Emptyness tab

Slide down: \
slide up:  /
Hammeron: H
pull off: p

            Repeat this part 3X on the last do the hammeron, then go into the  2nd 
(reapeat all of this 3x) listen to the track to get what i mean
e----------------------------------------------------------------|
b----------------------------------------------------------------|
g----------------------------------------------------------------|
d------------3---3-----------------2---2h3p2---------------------|
a---5---5-------------5\---0---0---------------0-----------------|
e----------------------------------------------------------------|

e----------------------------------------------------------------|
b----------------------------------------------------------------|
g----------------------------------------------------------------|
d-----------3---3-----------------2---2--------------------------|
a-------------------------0---0-----------0----------------------|
e---1---1-----------1--------------------------------------------|


im pretty sure the chorus goes like this ,  but the last bit is really extorted so its 
to hear!!!!!!!!!!!!!


e----------------------------------------------------------------|
b----------------------------------------------------------------|
g----7-----------5------------2----------------------------------|
d----7-----------5------------2----------------------------------|
a----5-----------3------------0----------------------------------|
e----------------------------------------------------------------|

listen to find out how many time to strum on each.....


this is only my first tab so bear with it....


if you have any questions write to  s_a_m_g_m@hotmail.com


p.s: johns the best musician!!!!!!!!
Tap to rate this tab
# A B C D E F G H I J K L M N O P Q R S T U V W X Y Z