Guitaretab - guitar tabs
Song name
# A B C D E F G H I J K L M N O P Q R S T U V W X Y Z

John Frusciante - Goals tab

Highlighted       Show chord diagrams
Dm/B [7x776x]

C            F
Sucking on a rhyme
C                          Am
You know I donít feel right
C                              F
These dreams they steal all my time
C                    Am    Am
They take it from my eyes
F                         G
I donít try as much to feel
               C Em Am
Anything these days
F                            G
I will try and reach the fields
                 C  Em Am
And there I will stay
F                G
No time comes to me now
C                   Em       Am
Thereís nothing Iím for or opposed to
 F                  C          Dm         Dm/B
Thereís nothing Iím really supposed to do
Dm/B                   
Goals disrupt the past
[ Tab from: http://www.guitaretab.com/j/john-frusciante/55247.html ]
   C       Em     C     Fsus2  C     Fsus2    C
e|-12------12-----8-----8------8-----8------------|
B|---13------12-----8-----8------8-----8----------|
G|-----12------12-----9-----10-----9-----10---9---|
D|------------------------------------------------|
A|------------------------------------------------|
E|------------------------------------------------|

One thing about a life
It's an endless straight line
The dreams I once had
They've taken me for a ride
Just show me the way to leave
That's all I need
Where I don't notice anything
That's where I will be
Life doesn't come to me now
And I wouldn't want it to
There's nothing I'd like to do
Goals disrupt the past.

   C       Em     C     Fsus2  C     Fsus2    C
e|-12------12-----8-----8------8-----8------------|
B|---13------12-----8-----8------8-----8----------|
G|-----12------12-----9-----10-----9-----10---9---|
D|------------------------------------------------|
A|------------------------------------------------|
E|------------------------------------------------|

C          F	     C			
There's nothing I realize
F	  C       Dm   
There's no one I despise
C          F      C
Nothing to hide behind
G	     
This time.

C          F	     C	
There's no one I despise
F       C    Dm   
nothing I realize
C          F      C
Nothing to hide behind
G	      C
This time.
Related for Goals tab