Guitaretab - guitar tabs
Song name
# A B C D E F G H I J K L M N O P Q R S T U V W X Y Z

John Frusciante - Past Recedes tab

This is the most correct version so far

Legend:
	h  hamer on
	p  pull of
	s  slide
	b  bend
	r - release

E |--10---8h10p8s7---7h8p7s5---------|--7--------------------------|
B |---------------------------878--|----10-8-7-8----7-5-3--------|
G |----------------------------------|-----------------------------|
D |----------------------------------|-----------------------------|
A |----------------------------------|-----------------------------|
E |----------------------------------|-----------------------------|

[ Tab from: http://www.guitaretab.com/j/john-frusciante/57408.html ]
E |---------------------------|---------------------------------3--|
B |3h5p3p0--0---0------------|----------------------31h3p1p0-----|
G |------------2---20h2p0--0-|--0------------0-4-0----------------|
D |---------------------------|----4-2-0-2-4-----------------------|
A |---------------------------|------------------------------------|
E |---------------------------|------------------------------------|


E |--7-5h7p5s3--3---10-10---12--12--12--12---14--14---14----------|
B |--------------------------15b-15b-15b-15b-17b-17b17b----------|
G |----------------------------------------------------------------|
D |----------------------------------------------------------------|
A |----------------------------------------------------------------|
E |----------------------------------------------------------------|


E |--11---11------11-----12----------------------------------------|
B |--12--12b(r)--12-----------------------------------------------|
G |----------------------------------------------------------------|
D |----------------------------------------------------------------|
A |----------------------------------------------------------------|
E |----------------------------------------------------------------|
Related for Past Recedes tab