Song name
# A B C D E F G H I J K L M N O P Q R S T U V W X Y Z

John Frusciante - Emptiness tab

Title: Emptiness
Artist: John Frusciante
Album: Inside Of Emptiness
Tabbed by: Hans Heinrich (daHansch) (11.03.2008)
Email: omafrau@arcor.de

have fun ;)

Intro
E-----------------------------------------------|-----------------------------------------|
B-----------------------------------------------|-----------------------------------------|
G-----------------------------------------------|-----------------------------------------|
D-----------------------------------------------|--------------------------3-3------------|
A-------8-8--------7------------8-8--------7----|-------8-8--------7-7---------------7----|
E-10-10-----10s5-5----5---10-10-----10s5-5----5-|-10-10-----10s5-5-----5s1-----1s5-5----5-|

	you can also play on the A-string
	E-------------------|
	B-------------------|
	G-------------------|
	D-----3-3-------2---|
	A-5-5-----5s0-0---0-|
	E-------------------|

and now a minute is trapped / i fell into a crack
E--------------------------------------------------|
B--------------------------------------------------|
G--------------------------------------------------|
D--------------------------------------------------|
A---------8-8--------7-7-----------8-8--------7----|
E---10-10-----10s5-5-----5---10-10-----10s5-5----5-|

eleven tries leading the way and then foresight comes
E-------------------------------------------|
B-------------------------------------------|
G-------------------------------------------|
D----------------------------3-3------------|
A---------8-8--------7-7---------------7----|
E---10-10-----10s5-5-----5s1-----1s5-5----5-|

I've lost my sence of it all / the feelings I can't resolve
E--------------------------------------------------|
B--------------------------------------------------|
G--------------------------------------------------|
D--------------------------------------------------|
A---------8-8--------7------------8-8--------7-7---|
E---10-10-----10s5-5----5---10-10-----10s5-5-----5-|

circumstances outside convention and you know I tried ....to be part of life
E-------------------------------------------|
B-------------------------------------------|
G-------------------------------------------|
D---------------------------3-3-------------|
A---------8-8--------7----------------7-7---|
E---10-10-----10s5-5----5s1-----1s5-5-----5-|

Refrain

 Guitar 1 
E--------------------------------------------|
B--------------------------------------------|
G--77-77-77-777-55-55-55-555-----------------|
D--77-77-77-777-55-55-55-555-7-77-77-7-77-77-|    2x
A--55-55-55-555-33-33-33-333-7-77-77-7-77-77-|
E----------------------------5-55-55-5-55-55-| 

///////////////////////////////////////////////////////
Guitar 2 (2nd time)
E------------------------------------------------------|
B------------------------------------------------------|
G------------------------------------------------------|
D------------------------------------------------------|
A------------------------------------------------------|
E--5---5-5--5-5-8---8-8--8-8-9--9--9--9---9--9--9--9---|



(1)I found the rest of me/ I was beaten on down
(2)Emptiness set me free/ I lived on a cloud
(3)The walk through the storm/ was like a holiday
E--------------------------------------------|
B--------------------------------------------|
G--7--7-7--7-7--5--5-5--5-5------------------|
D--7--7-7--7-7--5--5-5--5-5--7-77-77-7-77-77-|
A--5--5-5--5-5--3--3-3--3-3--7-77-77-7-77-77-|
E----------------------------5-55-55-5-55-55-|

I happened to have been warned/ over and over again
E-------------------------------------|
B-------------------------------------|
G--4-44-44-4-44-44--------------------|
D--5-55-55-5-55-55----7-77-77-7-77-77-|
A--5-55-55-5-55-55----7-77-77-7-77-77-|
E--3-33-33-3-33-33----5-55-55-5-55-55-|


E-------------------------------------------------|
B-------------------------------------------------|
G-------------------------------------------------|
D-------------------------------------------------|
A---------8-8--------7------------8-8--------7----|
E---10-10-----10s5-5----5---10-10-----10s5-5----5-|


E--------------------------------------------|
B--------------------------------------------|
G--------------------------------------------|
D----------------------------3-3-------------|
A---------8-8--------787---------------7-7---|
E---10-10-----10s5-5-----5s1-----1s5-5-----5-|

the sense of speaking dissolved/ words meanings I couldn't recall
E--------------------------------------------------|
B--------------------------------------------------|
G--------------------------------------------------|
D--------------------------------------------------|
A---------8-8--------7------------8-8--------7-----|
E---10-10-----10s5-5----5---10-10-----10s5-5----5--|

and all I'd found did my losing  I was tough to find
E--------------------------------------------|
B--------------------------------------------|
G--------------------------------------------|
D----------------------------3-3-------------|
A---------8-8--------7-7---------------787---|
E---10-10-----10s5-5-----5s1-----1s5-5-----5-|

playing games with my mind/ up the drops that I climbed
E---------------------------------------------------|
B---------------------------------------------------|
G---------------------------------------------------|
D---------------------------------------------------|
A---------8-8--------7------------8-8--------7-7----|
E---10-10-----10s5-5----5---10-10-----10s5-5-----5--|
    /
Guitar 1
Guitar 2
    \
E--10-10-10-10-10-10-10-10-9-9-9-9-9-9-9-9-10-10-10-10-10-10-10-10-9-9-9-9-9-9-9-9|
B---------------------------------------------------------------------------------|
G---------------------------------------------------------------------------------|


in the abyss I was hurled into  by who I brought back ...into time
E--------------------------------------------|
B--------------------------------------------|
G--------------------------------------------|
D----------------------------3-3-------------|
A---------8-8--------787---------------7-7---|
E---10-10-----10s5-5-----5s1-----1s5-5-----5-|
    /
Guitar 1 
Guitar 2
    \
E--10-10-10-10-10-10-10-10-9-9-9-9-9-9-9-9----------------------------------------|
B------------------------------------------10-10-10-10-10-10-10-10-8-8-8-8-8-8-8-8|
G---------------------------------------------------------------------------------|


Refrain

 Guitar 1 
E--------------------------------------------|
B--------------------------------------------|
G--77-77-77-777-55-55-55-555-----------------|
D--77-77-77-777-55-55-55-555-7-77-77-7-77-77-|    2x
A--55-55-55-555-33-33-33-333-7-77-77-7-77-77-|
E----------------------------5-55-55-5-55-55-| 

///////////////////////////////////////////////////////
Guitar 2 (2nd time)
E------------------------------------------------------|
B------------------------------------------------------|
G------------------------------------------------------|
D------------------------------------------------------|
A------------------------------------------------------|
E--5---5-5--5-5-8---8-8--8-8-9--9--9--9---9--9--9--9---|

(1)I found the rest of me/ I was beaten on down
(2)Emptiness set me free/ I lived on a cloud
(3)The walk through the storm/ was like a holiday
E--------------------------------------------|
B--------------------------------------------|
G--7--7-7--7-7--5--5-5--5-5------------------|
D--7--7-7--7-7--5--5-5--5-5--7-77-77-7-77-77-|
A--5--5-5--5-5--3--3-3--3-3--7-77-77-7-77-77-|
E----------------------------5-55-55-5-55-55-|

I happened to have been warned/ over and over again
E-------------------------------------|
B-------------------------------------|
G--4-44-44-4-44-44--------------------|
D--5-55-55-5-55-55----7-77-77-7-77-77-|
A--5-55-55-5-55-55----7-77-77-7-77-77-|
E--3-33-33-3-33-33----5-55-55-5-55-55-|

E----------------------------------|
B----------------------------------|
G--7-7-77-12-10--------1010101010--|
D--7-7-77-12-10--7-7-7-1010101010--| --> 3x
A--5-5-55-10-8---7-7-7-8 8 8 8 8---|
E----------------5-5-5-------------|

   over and over again
E-------------------------------------|
B-------------------------------------|
G-------------------------------------|
D--5-55-55-5-55-55----7-77-77-7-77-77-|
A--5-55-55-5-55-55----7-77-77-7-77-77-|
E--3-33-33-3-33-33----5-55-55-5-55-55-|


E----------------------------------|
B----------------------------------|
G--7-7-77-12-10--------1010101010--|
D--7-7-77-12-10--7-7-7-1010101010--| --> 3x
A--5-5-55-10-8---7-7-7-8 8 8 8 8---|
E----------------5-5-5-------------|

E-----------------------|
B-----------------------|
G-----------------------|
D--5-5-5-5--77-77-77-77-|
A--5-5-5-5--77-77-77-77-|
E--3-3-3-3--55-55-55-55-|

end

i'm not 100% happy with this, i'll try to tab everything ;)
Tap to rate this tab
# A B C D E F G H I J K L M N O P Q R S T U V W X Y Z