Song name
# A B C D E F G H I J K L M N O P Q R S T U V W X Y Z

John Frusciante - Maybe Live tab

Highlighted       Show chord diagrams
A# major, then G minor, D# Major, F Major. then the chorus is just A# major to A#major 
and back. hope you know those chords.

Intro:
e|-------------|
b|-------------|
g|-------------|
d|-------------|
a|----------0--|
E|--1-1-1-3----|

     A#    Gm   D#     F Major   sus4
e|---6------3------3------5-------6---------------------------------------|
B|---6------3------4------6-------6---------------------------------------|
G|---7------3------3------5-------8---------------------------------------|
D|---8------5------5------7-------8---------------------------------------|
A|---8------5------6------8-------8---------------------------------------|
E|---6------3------3------5-------6---------------------------------------|

Those are the chords! n'joy and rate a 5! ;)


A#     Gm
Maybe, if i pray everyday,
D#        F Major
You'll come back to me.
A#         Gm
And maybe, if i call everyday,
D#        F Major
You'll come back to stay.
 A#m A#m sus4
Oh maybe.

Intro 1X

A#     Gm
Maybe, if i hold, your hand,
D#        F Major
You will understand.
A#         Gm
And maybe, if i kiss, your lips,
D#              F Major
I'll be at your command.

    A# sus4 A# sus4
Oh maybe,
    A# sus4
Oh maybe.
Tap to rate this tab
 
# A B C D E F G H I J K L M N O P Q R S T U V W X Y Z