Song name
# A B C D E F G H I J K L M N O P Q R S T U V W X Y Z

John Frusciante - Young Frankinstein tab

Help us improve GuitareTab! Take a short survey!
e -----------19-20-19------16----------------|---------21-20-21----17-18---|
B --------------------------------16-17-17---|----17-----------------------|
G ----17-------------------------------------|-----------------------------|
D -------------------------------------------|-----------------------------|
A -------------------------------------------|-----------------------------|
E -------------------------------------------|-----------------------------|

e ---16-15-------------------------------------------------------.
B ----------18-18---17-15----------------------------------------.
G -------------------------18-18----------17-17------/20-----17--.
D ---------------------------------18-17-------------------------.
A ---------------------------------------------------------------.
E ---------------------------------------------------------------.

Im glad i did this coz its my favourite Film EVER!!!!!

Submited by Nat

hey every1 at Yarm!!
Related for Young Frankinstein tab