Song name
# A B C D E F G H I J K L M N O P Q R S T U V W X Y Z

John Frusciante - Forever Away tab

Gtr 1 - Acoustic
   Dm
eb|--1--|----------1---0---0---------1---0---0--0-----|
Bb|--3--|o-----3---3---1---1-----3---3---1---1--1----o|
Gb|--2--|--------2-----------------2------------------|
Db|--0--|---0------------3-3--0------------2-2--------|
Ab|-----|o-------------------------------------------o|
Eb|-----|---------------------------------------------|


eb|----------3-----0---0----------3-----0---0--0-----|
Bb|o-----3-----3---1---1------3-----3---1---1--1----o|
Gb|--------2-----2--------------2-----2--------------|
Db|---0--------------3-3---0--------------2-2--------|
Ab|o------------------------------------------------o|
Eb|--------------------------------------------------|

Gtr 2 - electric
1:27
e|---15-12----------15-12----------15-12----------15-12------------|
B|---------13-15----------13-15----------13-15----------13-15------|
G|---------------14-------------14-------------14-------------14---|
D|-----------------------------------------------------------------|
A|-----------------------------------------------------------------|
E|-----------------------------------------------------------------|

e|-----15-12----------------|
B|-----------13-15----13----|
G|-----------------14----12-|
D|--------------------------|
A|--------------------------|
E|--------------------------|

e|---15-12----------15-12----------15-12----------15-12-----------------|
B|---------13-15----------13-15----------13-15----------13-15-13-15~~~--|
G|---------------14-------------14-------------14-----------------------|
D|----------------------------------------------------------------------|
A|----------------------------------------------------------------------|
E|----------------------------------------------------------------------|

e|----15h17p15p13--15h17p15p13--15h17p15p13--15h17p15p13--15h17p15p13----|
B|-15------------15-----------15-----------15-----------15---------15-17~|
G|-----------------------------------------------------------------------|
D|-----------------------------------------------------------------------|
A|-----------------------------------------------------------------------|
E|-----------------------------------------------------------------------|

e|---15h17p15p13--15h17p15p13--15h17p15p13--15h17p15p13---20~~-17-20b22~~|
B|15------------15-----------15-----------15-----------15----------------|
G|-----------------------------------------------------------------------|
D|-----------------------------------------------------------------------|
A|-----------------------------------------------------------------------|
E|-----------------------------------------------------------------------|

2:30
e|-------------------------------------------------------------------------|
B|-------------------------------------------------------------------------|
G|-------------------------------------------------------------------------|
D|-----------10-12/14-12-10-12----12~~--------------10-12/14-12-10-12--12--|
A|12-10-12--12-------------------12------12-10-12--12----------------12----|
E|-------------------------------------------------------------------------|

e|-------------------------------------------------------------------------|
B|-------10----------------------------------------------------------------|
G|--10-12---12p10--10-12br-p10---10-12br-p10---10-12br-p10----10-12br-p10--|
D|12----------------12-------------12-------------12-------------12--------|
A|-------------------------------------------------------------------------|
E|-------------------------------------------------------------------------|

e|---------------------------------------------------------17\----------|
B|------------------12b13---13b-13br-10-13b-13b--15b-15-13--------------|
G|---10-12br-p10--------------------------------------------------------|
D|12-------------12-----------------------------------------------------|
A|----------------------------------------------------------------------|
E|----------------------------------------------------------------------|


3:29
e|-----------------------------------------------------------------------|
B|-----------------------------------------------------------------------|
G|10p7----7-10p7----7-10p7----7-10p7----7-10p7----7-10p7----7-10p7-------|
D|-----10--------10--------10--------10--------10--------10--------10----|
A|-----------------------------------------------------------------------|
E|-----------------------------------------------------------------------|

e|-----------------------------------------------------------------------|
B|-----------------------------------------------------------------------|
G|10p7----7-10p7----7----------------------------------------------------|
D|-----10--------10---10p7----7-10p7----7-10p7----7-10p7----7-10p7----7~~|
A|-------------------------10--------10--------10--------10--------10----|
E|-----------------------------------------------------------------------|

e|-----------------------------------------------------------------------|
B|-----------------------------------------------------------------------|
G|-----------------------------------------------------------------------|
D|----3-5/7\5-3-5-3h5p3h5p3-2------3-5b7r5-3-5-3h5p3h5p3h5p3h5p3-2-------|
A|3/5--------------------------3/5---------------------------------------|
E|-----------------------------------------------------------------------|

e|-----------------------------------------------------------------------|
B|-----------------------------------------------------------------------|
G|----5-5---5-5---5---5-5------------------------------------------------|
D|5/7-----7-----7---7-----7~~~~--/15\------------------------------------|
A|-----------------------------------------------------------------------|
E|-----------------------------------------------------------------------|


4:29
e|-15h17p15-15151515151515p13----?-15h17p15-15151515171517151715p13------|
B|----------------------------15------------------------------------15b--|
G|-----------------------------------------------------------------------|
D|-----------------------------------------------------------------------|
A|-----------------------------------------------------------------------|
E|-----------------------------------------------------------------------|

e|-13-12-------------13-12-------------13-12----------------------|
B|-------15-13-12----------15-13-12----------15-13-12-------------|
G|----------------14----------------14----------------14-13-12----|
D|----------------------------------------------------------------|
A|----------------------------------------------------------------|
E|----------------------------------------------------------------|

-------------------------|
------------------12-13--|
---------12-13-14--------|
15-12-15-----------------|
-------------------------|
-------------------------|

e|-----------------------------------------------------------------------|
B|12---------------------------------------------------------------------|
G|---14-13-12------------------------------------------------------------|
D|------------15-12---15-12-15\---------------------------------12-10-12-|
A|-----------------------------------------------------------------------|
E|-----------------------------------------------------------------------|


5:29
e|---------------10-12-10-------10---------------------------------------|
B|12br-10--10-13----------13-12----13-12-10-13-12-10-10----10~~----------|
G|------------------------------------------------------12---------------|
D|-----------------------------------------------------------------------|
A|-----------------------------------------------------------------------|
E|-----------------------------------------------------------------------|


e|15b-15b-15b-15b-----15b-15b-15b-15b------------------------------------|
B|-----------------------------------------------------------------------|
G|-----------------------------------------------------------------------|
D|-----------------------------------------------------------------------|
A|-----------------------------------------------------------------------|
E|-----------------------------------------------------------------------|

e|13p12----12--------------------------------------------------------------|
B|------15-----15p13-------------------------------------------------------|
G|-------------------12-14--12p10----10-12p10----10------------------------|
D|--------------------------------12----------12-----12p10----10-12p10---10|
A|---------------------------------------------------------12----------12--|
E|-------------------------------------------------------------------------|

e|-----------------------------------------------------------------------|
B|-----------------------------------------------------------------------|
G|-----------------------------------------------------------------------|
D|-----------------------------------------------------------------------|
A|12p10----10---------10-12/15-15-12-\10h12-12---------------------------|
E|------13-----13~-------------------------------------------------------|

e|-----------------------------------------------------------------------|
B|-------13-15-15/17-15-13----15--13\-----------13----13-----------------|
G|-12/14-------------------14-------------12/14----14-----12/14~\--------|
D|-----------------------------------------------------------------------|
A|-----------------------------------------------------------------------|
E|-----------------------------------------------------------------------|

e|15b-15br-13-15b-15b--------19b20r19-17---15br-13-12---------------------|
B|------------------------------------------------------------------------|
G|------------------------------------------------------------------------|
D|------------------------------------------------------------------------|
A|------------------------------------------------------------------------|
E|------------------------------------------------------------------------|

I apologise for the state of the solo(s). It was hard to tab and harder to fit it
in and line it up right.
Tap to rate this tab
 
# A B C D E F G H I J K L M N O P Q R S T U V W X Y Z