Guitaretab - guitar tabs
Song name
# A B C D E F G H I J K L M N O P Q R S T U V W X Y Z

John Frusciante - Three Thoughts tab

-------------------------------------------------------------------------------
Tabbed by:Numb82
Email:vanwykandrei@yahoo.com
[ Tab from: http://www.guitaretab.com/j/john-frusciante/68457.html ]
Tuning:Standard
On the actual recording it is played extremely sloppy
VERSE:
e|--------------------------------------------------------------------------------------|
B|----------------------8-8-------------------------------------------------------------|
G|---7-7----5-5---9-9---7-7-------------------------------------------------------------|
D|---7-7----5-5---9-9---9-9-------------------------------------------------------------|
A|---5-5----3-3---7-7---7-7-------------------------------------------------------------|
E|--------------------------------------------------------------------------------------|
VERSE WITH SMALL FILL: THOSE LAST TWO CHORDS SHOULD BE STRUMMED FASTER UPWARDS.
e|-------------------------------------------------------------------------------------|
B|----------------------8-6------------------------------------------------------------|
G|---7-7----5-5---9-9---7-7------------------------------------------------------------|
D|---7-7----5-5---9-9---9-9------------------------------------------------------------|
A|---5-5----3-3---7-7---7--------------------------------------------------------------|
E|-------------------------------------------------------------------------------------|

CHORDS INTO CHORUS CHORDS;

e|--------------------------------------------------|
B|----------------------8-8-------------------------|
G|---7-7----5-5---9-9---7-7---------2-2-2------5-5--|
D|---7-7----5-5---9-9---9-9---------2-2-2------5-5--|
A|---5-5----3-3---7-7---7-7---------0-0-0------3-3--|
E|--------------------------------------------------|


LYRICS:
Every action going down to murder
Every day Iím gonna kill my past
Time gives endless spark to futures
Anyway Iím gonna fill my life

She plays in the skies she gave you night
You breathed through the white and faded out
It fades on and on, you entered
I give three thoughts just to say hey

Animation of the furthest thought heard
Animation hit the streetlight
Empty gazes through the strip malling
Poison veins in the streams flight

Awakened by sight to that closed eye
Draining through the edges of shadows
As they fight, as they tear themselves down
You won't give up from swinging will you?
Related for Three Thoughts tab