Song name
# A B C D E F G H I J K L M N O P Q R S T U V W X Y Z

John Frusciante - What I Saw tab

----------------------------------------------------------------------------
			     What i Saw - John Frusciante
----------------------------------------------------------------------------
Tabbed by: Eddy Hitler  (a.k.a. Gary)
Email: Breakingmyballs666@hotmail.com

Tuning:Standard

intro/ verse

      D#5               G5            A5
e|---------------------------------------------------------------------|---|
B|---------------------------------------------------------------------|---|
G|---------------|--|--------------------------------------------------|---|
D|--4--4-4-------|X4|-------------------------------4--4-4-------4--4-4|-X4|
A|--2--2-2----0--|--|--5--5-5-5-----7--7-7------0---2--2-2----0--2--2-2|---|
E|----------2----|--|--3--3-3-3-----5--5-5----2-------------2----------|---|


                          INTERLUDE
      F#5             E5   G5     D5     C5
   "it can`t see"    "i see to, be right.."    
e|-----------------|------------------------|---------------------------|
B|-----------------|------------------------|---repeat 3 times, then----|
G|-----------------|------------------------|---repeat F# P.M. then-----|
D|-----------------|---------------7-7---5-5|---repeat 3 times again----|
A|-4-4-4-4---------|--2-2---5-5----5-5---3-3|---------------------------|
E|-2-2-2-2---------|--0-0---3-3-------------|---------------------------|
  ^^ p.m....
 (hit about 13 times)

    
       Middle 8

    C5    D5        E5                       E5

    "give me your hands.. "
e|----------------------------|---|--------------------------------------|
B|----------------------------|---|--------------------------------------|
G|----------------------------|---|--------------------------------------|
D|-5-5-5--7-7-7---9--9--9--9--|-X4|---end on--9--------------------------|
A|-3-3-3--5-5-5---7--7--7--7--|---|-----------7--------------------------|
E|----------------------------|---|--------------------------------------|


the layout of the song is as follows;

   Intro
   Verse
   Interlude
   Middle 8
   -intro-
   Verse
   Interlude
   Middle 8 x2
   --Solo-- (play Middle 8 Chords under/instead of the solo)
Tap to rate this tab
 
# A B C D E F G H I J K L M N O P Q R S T U V W X Y Z