Song name
# A B C D E F G H I J K L M N O P Q R S T U V W X Y Z

John Frusciante - Untitled 10 tab

Straight from 
http://jftab.free.fr/
Great frusciante web site


===============
  < untitled #10 >
  ===============

by John Frusciante
from "Niandra Lades and Usually just a T-shirt"

Version 1 :

Tablature by Paul Caspers 

Note: If you can't play as fast as John, a capo behind your first fret and 
some alternative positions should do the trick.

|------h---------11\-(8)---8-----4--6h8-6------------------------14===----|
|-----6-4-6--------------------------------6=--7-----/11-----/11----------|
|------------------------------------------6=----6/8-----8=---------------|
|-------------------------------------------------------------------------|
|-----------/8-------------------------------------------6=---------------|
|-1-1----------9--------6-----2-----6------6=--7--------------------------|


|-----11-11--10-11--11-11--11-|-----4----------11-11--11-11--10-11--11--11-|
|-11=----11--10-11--11-11--11-|---6-------4==-----11--11-11--10-11--11--11-|
|-----------------------------|-6-------4----------------------------------|
|-----------------------------|-------6------------------------------------|
|-----------------------------|--------------------------------------------|
|-----------------------------|--------------------------------------------|

|-----4-------------------------------------------------------------------|
|---6-------4==-----4===--------------------------------------------------|
|-6-------4-----6==-4===--------------------------------------------------|
|-------6-------6==-6===--------------------------------------------------|
|---------------4==-6===--------------------------------------------------|
|-------------------4===--------------------------------------------------|

****************************************************************************
****************************************************************************
Version 2 :

tablature by little_wing   
corrections to Paul Caspers' tab 
 
mind tempo!
 

           h
|------h------------11\------8-----4--4-6-4--------h------------------14===-----|
|-----6-4-6---------11\-----------------------6=--7-6--h--/11-----/11-----------|
|---------------------------------------------6=------8-6-----8=----------------|
|-------------------------------------------------------------------------------|
|-----------/8---8--------------------------------------------6=----------------|
|-1-1----------9--------6-----2-------2-------6=--------------------------------|
 

|-----11-11--11--11--10--11--11-|-----4=----------11-11--11-11--10-11--11--11---|
|-11=----11--11--11--10--11--11-|---6=-------4==-----11--11-11--10-11--11--11---|
|-------------------------------|-6=-------5=-----------------------------------|
|-------------------------------|--------6=-------------------------------------|
|-------------------------------|-----------------------------------------------|
|-------------------------------|-----------------------------------------------|
    .   2x   .
 
|-----4=------------------------------------------------------------------------|
|---6=-------4==----------------------------------------------------------------|
|-6=-------5=--------------6===-------------------------------------------------|
|--------6=-----------6==--6===-------------------------------------------------|
|---------------------6==--4===-------------------------------------------------|
|---------------------4==-------------------------------------------------------|
 

'from the sounds inside'  - john frusciante


~Bielik
Tap to rate this tab
# A B C D E F G H I J K L M N O P Q R S T U V W X Y Z