Guitaretab - guitar tabs
Song name
# A B C D E F G H I J K L M N O P Q R S T U V W X Y Z

John Frusciante - Murderes tab

-------------------------------------------------------------------------------
			     Murderers - John Frusciante
-------------------------------------------------------------------------------
Tabbed by: Melvin
Email: Carangatang@yahoo.com

Tuning: Standard
                            Chorus              
e|---------------------12-------------------------------------------------|
B|12------------14------12----------------12-------------12-14-12--------|\ 
G|-----13-14-14-------------14-13-14---------13-14-14-------------14-13-14|x2
D|------------------------------------------------------------------------|/ 
A|------------------------------------------------------------------------| 
E|------------------------------------------------------------------------|
                          End Chorus
e|------------------------------------------------------------------ -----|
B|------9-----------------------------------------10----------------------|
G|------------------------------------------------------------------------|
D|------------------------------------------------------------------------|
A|------7------------------------------------------9----------------------|
E|------------------------------------------------------------------------|

e|------------------------------------------------------------------------|
B|-------9-----------------------------------------9----------------------|
G|-------------------------------------------------10---------------------|
D|------------------------------------------------------------------------|
A|-------7----------------------------------------------------------------|
E|--------------------------------------------------9---------------------|

e|------------------------------------------------------------------------|
B|-----7----7----9----910------10----10------10--------10---------------|
G|------------------------------------------------------------------------|
D|------------------------------------------------------------------------|
A|-----5-5-------7-7-----9---------9-------9------9--------9--------------|
E|------------------------------------------------------------------------|

e|------------------------------------------------------------------------|
B|-----7---7------9----9---12----10--10--10--10---10------------------|
G|------------------------------------------------------------------------|
D|------------------------------------------------------------------------|
A|-----5-5--------7-7------10-----9-----9----9----9-----9-----------------|
E|------------------------------------------------------------------------|
[ Tab from: http://www.guitaretab.com/j/john-frusciante/74287.html ]
e|------12----12----------------------------------------------------------|
B|-------------------------------9----9--10--10----10----10---10--------|
G|------------------------------------------------------------------------|
D|------------------------------------------------------------------------|
A|-------------------------------7-7------9-----9-----9-----9-----9-------|
E|------1111-------------------------------------------------------------|

e|------------------------------------------------------------------------|
B|--------7----7---9---96------------------------------------------------|
G|------------------------------------------------------------------------|
D|------------------------------------------------------------------------|
A|--------5-5------7-7---4------------------------------------------------|
E|------------------------------------------------------------------------|
			(Chorus)
e|-------------------------------------------------------------------|
G|-------------------------------------------------------------------|\		
B|-9--1091210910----5-------------------------------------------| x2
D|-------------------------------------------------------------------|/
A|-----------------------3-------------------------------------------|
E|-------------------------------------------------------------------|
			(Chorus)

e|------------------------------------------------------------------------|
B|-----7----7----9----910------10----10------10--------10---------------|
G|------------------------------------------------------------------------|
D|------------------------------------------------------------------------|
A|-----5-5-------7-7-----9---------9-------9------9--------9--------------|
E|------------------------------------------------------------------------|

e|------------------------------------------------------------------------|
B|-----7---7------9----9---12----10--10--10--10---10------------------|
G|------------------------------------------------------------------------|
D|------------------------------------------------------------------------|
A|-----5-5--------7-7------10-----9-----9----9----9-----9-----------------|
E|------------------------------------------------------------------------|

e|------12----12----------------------------------------------------------|
B|-------------------------------9----9--10--10----10----10---10--------|
G|------------------------------------------------------------------------|
D|------------------------------------------------------------------------|
A|-------------------------------7-7------9-----9-----9-----9-----9-------|
E|------1111-------------------------------------------------------------|

e|------------------------------------------------------------------------|
B|--------7----7---9---96------------------------------------------------|
G|------------------------------------------------------------------------|
D|------------------------------------------------------------------------|
A|--------5-5------7-7---4------------------------------------------------|
E|------------------------------------------------------------------------|
                  Then the chorus to finish it

This is my first tab so i hope you like it!:)

===============================================================================
Related for Murderes tab