Song name
# A B C D E F G H I J K L M N O P Q R S T U V W X Y Z

John Frusciante - Water Acoustic tab

Water
John Frusciante
Shadows Collide With People


Standard Tuning (EADGBe)


Chorus/Intro:

    E  E   B  B   A  A   E  E
e|--7--7---7--7---5--5---7--7-----------|
B|--9--9---7--7---5--5---9--9-----------|
G|--9--9---8--8---6--6---9--9-----------|
D|--9--9---9--9---7--7---9--9-----------| x 4
A|--7--7---9--9---7--7---7--7-----------|
E|---------7--7---5--5------------------|


Verse:

    G#m  G#m  G#m
e|--4-4---4---4-4-----------------------|
B|--4-4---4---4-4-----------------------|
G|--4-4---4---4-4-----------------------|
D|--6-6---6---6-6---------4-------------| x 11
A|--6-6---6---6-6------4----------------|
E|--4-4---4---4-4---6-------------------|

    EEEEEEEEEEEEEEEE
e|--7777777777777777--------------------|
B|--9999999999999999--------------------|
G|--9999999999999999--------------------|
D|--9999999999999999--------------------|
A|--7777777777777777--------------------|
E|--------------------------------------|

    G#m  G#m  G#m
e|--4-4---4---4-4-----------------------|
B|--4-4---4---4-4-----------------------|
G|--4-4---4---4-4-----------------------|
D|--6-6---6---6-6---------4-------------| x 7
A|--6-6---6---6-6------4----------------|
E|--4-4---4---4-4---6-------------------|


    G#m  G#m  G#m G#m G#m
e|--4-4---4---4-4-4-4-4-4---------------|
B|--4-4---4---4-4-4-4-4-4---------------|
G|--4-4---4---4-4-4-4-4-4---------------|
D|--6-6---6---6-6-6-6-6-6---------------|
A|--6-6---6---6-6-6-6-6-6---------------|
E|--4-4---4---4-4-4-4-4-4---------------|


Outro:

    C#m   C#m   G#m  B B  B B B  F#m
e|--4-4--4-4-4--4-4--2-2--2-2-2--2-2----|
B|--5-5--5-5-5--4-4--4-4--4-4-4--2-2----|
G|--6-6--6-6-6--4-4--4-4--4-4-4--2-2----|
D|--6-6--6-6-6--6-6--4-4--4-4-4--4-4----| x 12
A|--4-4--4-4-4--6-6--2-2--2-2-2--4-4----|
E|--------------4-4--------------2-2----|

    C#m
e|---4----|
B|---5----|
G|---6----|
D|---6----|
A|---4----|
E|--------|


Enjoy!
Tap to rate this tab
 
# A B C D E F G H I J K L M N O P Q R S T U V W X Y Z