Song name
# A B C D E F G H I J K L M N O P Q R S T U V W X Y Z

John Frusciante - Leap Your Bar tab

This song is for piano but i've just transcribed it to guitar

Cheers :D


'Hannah go Leap your bar'            x2
E-------------------------------------]
B-------------------------------------]
G-------------------------------------]
D-----4--2-------------4--2-----------]
A---0-------4--4-----0------4--4------]
E-2----------------2------------------]

im gonna seperate this next bit into 2 guitars: Guitar one playing the lead and Guitar 
playing the bass :D

Guitar one

E-2--5--10--9--5--5--2--5--10--9--5--5--]
B---------------------------------------]
G---------------------------------------]
D---------------------------------------]
A---------------------------------------]
E---------------------------------------]

Guitar two

E---------------------------------------]
B---------------------------------------]
G---------------------------------------]
D---------------------------------------]
A---0--4----------------0--4------------]
E-2-------------------2-----------------]


' In the valleys noon the things that I can buy '
E-7--9--7--9--7--9--7--5--4--2--5-------]
B---------------------------------------]
G---------------------------------------]  REPEAT
D---------------------------------------]
A---------------------------------------]
E---------------------------------------]


' I was so Bad, I was so Bad '
E--2--2--2--------------2------------------]
B--2--2--2--------------3------------------]
G--2--2--2--1--1--1--1--2------------------]
D--4--4--4--2--2--2--2---------------------]
A--4--4--4--2--2--2--2---------------------]
E--2--2--2---------------------------------]

Guitar one

E-2--5--10--9--5--5--2--5--10--9--5--5--]
B---------------------------------------]
G---------------------------------------]
D---------------------------------------]
A---------------------------------------]
E---------------------------------------]

Guitar two

E---------------------------------------]
B---------------------------------------]
G---------------------------------------]
D---------------------------------------]
A---0--4----------------0--4------------]
E-2-------------------2-----------------]

this next part Iam going to seperate into 2 different parts guitar one playing the riff 
guitar two the chord played directly afterwards


 ' Endless the weeds you blink'
Guitar one
E---------------------------------------]
B---------------------------------------]
G-------7--6---------7--6---------------]
D-4--7---------4--7---------------------]
A---------------------------------------]
E---------------------------------------]

Guitar two

E-------------2-----------2-------------]
B-------------2-----------2-------------]
G-------------2-----------2-------------]
D-------------4-----------4-------------]
A-------------4-----------4-------------]
E-------------2-----------2-------------]

Guitar one

E-2--5--10--9--5--5--2--5--10--9--5--5--]
B---------------------------------------]
G---------------------------------------]
D---------------------------------------]
A---------------------------------------]
E---------------------------------------]

Guitar two

E---------------------------------------]
B---------------------------------------]
G---------------------------------------]
D---------------------------------------]
A---0--4----------------0--4------------]
E-2-------------------2-----------------]


' The Beloved Cars that went to where they went '
E-7--9--7--9--7--9--7--5--4--2--5-------]
B---------------------------------------]
G---------------------------------------]  REPEAT
D---------------------------------------]
A---------------------------------------]
E---------------------------------------]

' Life is so sad, Life is so sad '
E--2--2--2--------------2------------------]
B--2--2--2--------------3------------------]
G--2--2--2--1--1--1--1--2------------------]
D--4--4--4--2--2--2--2---------------------]
A--4--4--4--2--2--2--2---------------------]
E--2--2--2---------------------------------]

Guitar one

E-2--5--10--9--5--5--2--5--10--9--5--5--]
B---------------------------------------]
G---------------------------------------]
D---------------------------------------]
A---------------------------------------]
E---------------------------------------]

Guitar two

E---------------------------------------]
B---------------------------------------]
G---------------------------------------]
D---------------------------------------]
A---0--4----------------0--4------------]
E-2-------------------2-----------------]


'Hannah go fill your jar'            x2
E-------------------------------------]
B-------------------------------------]
G-------------------------------------]
D-----4--2-------------4--2-----------]
A---0-------4--4-----0------4--4------]
E-2----------------2------------------]


'Headed for the moon, the mission I can buy'
E-7--9--7--9--7--9--7--5--4--2--5-------]
B---------------------------------------]
G---------------------------------------]  REPEAT
D---------------------------------------]
A---------------------------------------]
E---------------------------------------]

' I never see you, I never see you '
E--2--2--2--------------2------------------]
B--2--2--2--------------3------------------]
G--2--2--2--1--1--1--1--2------------------]
D--4--4--4--2--2--2--2---------------------]
A--4--4--4--2--2--2--2---------------------]
E--2--2--2---------------------------------]

Guitar one

E-2--5--10--9--5--5--2--5--10--9--5--5--]
B---------------------------------------]
G---------------------------------------]
D---------------------------------------]
A---------------------------------------]
E---------------------------------------]

Guitar two

E---------------------------------------]
B---------------------------------------]
G---------------------------------------]
D---------------------------------------]
A---0--4----------------0--4------------]
E-2-------------------2-----------------]

woooo end of song :D
Tap to rate this tab
# A B C D E F G H I J K L M N O P Q R S T U V W X Y Z