Song name
# A B C D E F G H I J K L M N O P Q R S T U V W X Y Z

John Frusciante - Usually Just A T-shirt 2 tab

-------------------------------------------------------------------------------
	       Usually Just a T-shirt #2 - John Frusciante
-------------------------------------------------------------------------------
Tabbed by: Wack Strings
Email: bboy_44@hotmail.com


Tuning: Standard


| /  slide up
| \  slide down
| h  hammer-on
| p  pull-off
| ~  vibrato
| +  harmonic
| x  Mute note

E ------12--------------------------------------------------------------|
B -------------12---12-----13----10----10---8---------------------------|
G ---9------------------------------------------9-----------------------|
D --10------------------------------------------------------------------|
A --------10-----10-----12----8-----8-----------------------------------|
E ------------------------------------------8---------------------------|

E -----------------------------------------------------------------|
B --------5-------3----8----8--------------------------------------|
G ------5-------4------7----9--------------------------------------|
D ---------------------9---10--------------------------------------|
A --------------------10---10--------------------------------------|
E --5-------3---------------8--------------------------------------|

E ------12--------------------------------------------------------------|
B -------------12---12-----13----10----10---8---------------------------|
G ---9------------------------------------------9-----------------------|
D --10------------------------------------------------------------------|
A --------10-----10-----12----8-----8-----------------------------------|
E ------------------------------------------8---------------------------|

E -3(11x)-----5(4x)---------------------------------------------------------|
B -4----------6-------------------------------------------------------------|
G -3----------5-------------------------------------------------------------|
D -5----------7-------------------------------------------------------------|
A -6----------8-------------------------------------------------------------|
E --------------------------------------------------------------------------|

(Variation)

E -3(3x)--6--(4x)--3(5x)---5---8--------------------------------------------|
B -4------4--------4-------6---6--------------------------------------------|
G -3------3--------3-------5---5--------------------------------------------|
D -5------5--------5-------7---7--------------------------------------------|
A --------------------------------------------------------------------------|
E --------------------------------------------------------------------------|


E -----6---6----6------6-----6-----6----6-----6------------------------|
B -----8---8----8------8-----8-----8----8-----8------------------------|
G --0-----0---0------------0----0-----0--------------------------------|
D ------------------0----------------------0---------------------------|
A ---------------------------------------------------------------------|
E ---------------------------------------------------------------------|

E -----6----6-----6----6-----6---6-------6---6-----------------|
B -----8----8-----8----8-----8---8-------8---8-----------------|
G --8-----8-----0----0---------------0-----0-------------------|
D -------------------------8----8------------------------------|
A -------------------------------------------------------------|
E -------------------------------------------------------------|


E -----6----6-----6----6-----6---6-----------------------------|
B -----8----8-----8----8-----8---8-------8---8-----------------|
G --8-----8-----0----0---------------0-----0----0--------------|
D -------------------------8----8------------------------------|
A -------------------------------------------------------------|
E -------------------------------------------------------------|

E -----6----6-----6----6-----6----6-------6---6----------------|
B -----8----8-----8----8-----8----8-------8---8----------------|
G --8-----8-----0----0----------------0----0-------------------|
D -------------------------------------------------------------|
A -------------------------------------------------------------|
E -----------------------6-----6-------------------------------|
Tap to rate this tab
 
# A B C D E F G H I J K L M N O P Q R S T U V W X Y Z