Song name
# A B C D E F G H I J K L M N O P Q R S T U V W X Y Z

John Frusciante - Lifes A Bath tab

Help us improve GuitareTab! Take a short survey!
Artist: John Frusciante
Song:   Life's a Bath
Album:  Smile from the streets you hold 
Tabbed by: Mr. Unhills, comments: unhills@unhills.blogspot.com
http://unhills.blogspot.com

album is out of print :(

- use muted strings
- standart tuning

            //play this chord          
E||-------|--2-----2----2----2----|--2-------2-----------|
B||-------|--2-----2----2----2----|--2h5p2---2-----------|
G||-------|--2-----2----2----2----|--2-------2-----------|
D||-------|--4-----4----4----4----|--4-------4--4--4s11--|
A||-------|--5-----5----5----5----|--5-------5--5--5-----|
E||-------|--2-----2----2----2----|--2-------2--2--2s9---|


	                                            
	 "One year went by baby"
	 "Does she want to be happy with you?"
e||------------------------------------------------------------|
B||------------------------------------------------------------|
G||------------------------------------------------------------|  
D||--11----11----11----14----7----7----7----7s11---------------|
A||---9-----9-----9----12----5----5----5----5s9----------------|
E||------------------------------------------------------------|

	"Life's a baaaaaaaaaaath
e||------------------------------------------------------------|
B||------------------------------------------------------------|
G||------------------------------------------------------------|  
D||--11----11----11----14----7----7----7----7s11---------------|
A||---9-----9-----9----12----5----5----5----5s9----------------|
E||------------------------------------------------------------|

	"Sex is water"
e||------------------------------------------------------------|
B||-----------------------7-7-7----------------------------14~-|
G||-----------------------7-7-7----------------------------11~-|  
D||--11----11----11---14--7-7-7--11--11--11-14-7-7--7--14~-----|
A||---9-----9-----9---12----------9---9---9-12-5-5--5--12~-----|
E||------------------------------------------------------------|

	"Life's a baaaaaaaaaaath
e||------------------------------------------------------------|
B||--------------------------7--7--7---------------------------|
G||--------------------------7--7--7---6-6---------------------|  
D||--11----11----11----14----7--7--7---7-7-x-4--11-------------|
A||---9-----9-----9----12--------------7-7-x-4---9-------------|
E||------------------------------------5-5-x-2-----------------|


	"Come on" 		"Come on"
e||------------------------------------------------------------|
B||--------------------------7-----------------7---------------|
G||--------------------------7-----------------7---------------|  2times
D||--11----11----11----14----7----11--11--11---7---------------|
A||---9-----9-----9----12----------9---9---9-------------------|
E||------------------------------------------------------------|

//end
	"Come on" 
e||------------------------------------------------------------|
B||------------------------------------------------------------|
G||------------------------------------------------------------|  
D||--11----11----11~-------------------------------------------|
A||---9-----9-----9~-------------------------------------------|
E||------------------------------------------------------------|




Related for Lifes A Bath tab