Song name
# A B C D E F G H I J K L M N O P Q R S T U V W X Y Z

John Frusciante - Your Pussys Glued To A Building On Fire tab

This is the ending solo

e---------------------------------------------------------------------------------------|
b---------------------------------------------------------------------------------------|
g---------10h12p10-----10-12b-12-10---12p10----10---------------------------------------|
d-10-12--------------12-----------------------------12----12p10---10--------------------|
a----------------------------------------------------------------- ---12----12s10-8-10--|
e---------------------------------------------------------------------------------------|


e-------------------------------------------------------------------------------------|
b-------------------------------------------------------------------------------------|
g-------------------------------------------------------------14-14--17-15-14--14-15--|
d-------------------------------------------------------------------------------------|
a--10-8------10p8----8--------8--------8---8------------------------------------------|
e--------10---------10---10-10--10-10--10--10-10--------------------------------------|


e-----------------------------------------17-------------20-20-20-20-20-20-20-20--|
b------17-15-15--18-17-17--20-18-----20-20----------------------------------------|
g--14-----------------------------------------------------------------------------|
d---------------------------------------------------------------------------------|
a---------------------------------------------------------------------------------|
e---------------------------------------------------------------------------------|


e-18-18-18-18-17-17-17-17-17-17-17-17--|
b--------------------------------------|
g--------------------------------------|
d--------------------------------------|
a--------------------------------------|
e--------------------------------------|
Tap to rate this tab
# A B C D E F G H I J K L M N O P Q R S T U V W X Y Z